tablatura akordi besedilo   Pot v x (tab)

trzalica.com besedilo akordi tablature

Legenda ikon:


Pogoji uporabe.    

besedilo z akordi besedilo z akordi
tablature tablatura (tabulatura)
tablature tablatura za bas
tablature videolekcija

GuitarPro GutarPro (GP)
note Note (v PDF formatu)
sibelius Sibelius (SIB), itd.
..

Oglej si še:

  Pot v x (gp)
videolekcija Pot v x

trzalica bar

 _______________________________________________________
|                                                       |
| IZVAJALEC: ................................ Siddharta |
| PESEM: .................................... Pot v x   |
| ALBUM: .................................... ID        |
| LETO IZIDA: ............................... 1999      |
|_______________________________________________________|
|                                                       |
|  Avtor transkripcije: AliAs                           |
|  Domača stran transkripcije: Trzalica.com             |
|  Datum nastanka transkripcije: 24.1.2007              |
|_______________________________________________________|
 
================================================================================================
 
LEGENDA ZNAKOV:
M = MUTE
p = pull off
h = hammer on
/ = slide up
\ = slide down
v = vibrated
 
Prijemi akordov:
   Am   F   G ali G   E   A#   Dm
e|-0----1---3-----3---0--------1---|
B|-1----1---0-----3---0---3----3---|
G|-2----2---0-----4---1---3----2---|
D|-2----3---0-----5---2---3----0---|
A|-0----3---2-----5---2---1----0---|
E|------1---3-----3---0------------|
 
================================================================================================
 
INTRO:
   Am      F       G       E
e|---------------------------------|
B|---------------------------------|
G|----5-4-----5-4-----7-7\----4-5--|  -- 4x
D|---------3-------5-------2-------|  V tretji ponovitvi začne
A|-0-------------------------------|  druga kitara igrati akorde
E|---------------------------------|
 
   F       A#      Dm     A#      Dm       F        E
e|--------------------------------------------------0-----0-----|
B|----5-5-/7--5--3-2----5-7--5--3-2--0-----2--0-----0-----0-----|
G|-3------------------------------------3--------3--1-----1-----|
D|--------------------------------------------------2-----2-----|
A|--------------------------------------------------2-----2-----|
E|--------------------------------------------------0-----0-----|
 
        (Am  F  G  E  ) 2x
 
        Am        F      G
        V sobani poet sedi
          E        Am       F      G
        v upanju, da prave rime dobi,
         E          F            A#     Dm
        za vsak trenutek, ki ga je doživel
               A#        Dm        F                E
        v življenju na svetu zanj polnemu gorja in milosti.
 
 
VERZ 1:
(vsak akord enkrat strumaj navzdol)
 
        Am         F        G
        Morda je prav tudi to,
         E        Am        F      G
        temu naj sodi le zdravo telo.
         E           F       A#       Dm
        Vem pa, da vse temelji le na tem
             A#       Dm
        in vsem to povem:
                     F               >E > refren...
        Ali bi radi dober fix ali le pot v x?
 
   E
e|------------------|
B|------------------|
G|-9-9-----9-9------|
D|-9-9-----9-9------|
A|-7-7-----7-7------|
E|------------------|
       M       M
 
 
REFREN 1:
                 3x
   Am       F       G       E         Am       F       A#        G            E
e|----------------------------------|----------------------------3--3--3-3----0---|
B|----------------------------------|------------------3----3----3--3--3-3----0---|
G|----------------------------------|------------------3----3----4--4--4-4----1---|
D|----------------------------------|------------------3----3----5--5--5-5----2---|
A|-0--3--2--3--3-2--5--5--5-2--2-3--|-0--3--2--3--3-2--1----1----5--5--5-5----2---|
E|----------------------------------|----------------------------3--3--3-3----0---|
                                                                           M
 
     Am          F          G       E               Am
        A vsi vemo, da nekateri bi radi še čarati znali,
               F           G        E            Am
        vsi vemo, da za minuto bi slave sebe prodali,
               F            G      E                Am
        žalostno, da ti lažnivi dobijo denar le tako,
                  F               A#      G   E
        da samo sranje na police filajo.
 
 
VERZ 2:
 
   Am     F      G      E
e|---------------3------0------|
B|-----1------1--3------0------|
G|----2------2---4------1------|  -- 2x
D|--------3------5------2------|  nato vsak akord
A|-0-------------5------2------|  strumaj navzdol (če bi od zadaj jih osvetlil...)
E|---------------3------0------|
 
          Am      F          G
        Vsak policaj bil je tat
        E         Am       F          G
        in vse belo spremeni se v temno,
         E        F           A#           Dm
        če bi od zadaj jih osvetlili z lučjo
             A#       Dm            F
        in vse gre tako od pisal "olikancev"
                 >E > refren...
        v ušesa blaznežev.
 
   E
e|------------------|
B|------------------|
G|-9-9-----9-9------|
D|-9-9-----9-9------|
A|-7-7-----7-7------|
E|------------------|
       M       M
 
 
REFREN 2:
                 3x
   Am       F       G       E         Am       F       A#        G            E
e|----------------------------------|----------------------------3--3--3-3----0---|
B|----------------------------------|------------------3----3----3--3--3-3----0---|
G|----------------------------------|------------------3----3----4--4--4-4----1---|
D|----------------------------------|------------------3----3----5--5--5-5----2---|
A|-0--3--2--3--3-2--5--5--5-2--2-3--|-0--3--2--3--3-2--1----1----5--5--5-5----2---|
E|----------------------------------|----------------------------3--3--3-3----0---|
                                                       >od tu naprej je solo
 
     Am          F          G       E               Am
        A vsi vemo, da nekateri bi radi še čarati znali,
               F           G        E            Am
        vsi vemo, da za minuto bi slave sebe prodali,
               F            G      E                Am
        žalostno, da ti lažnivi dobijo denar le tako,
                  F               A#      G   E
        da samo sranje na police filajo.
 
 
SOLO:
        A#  G  E
        Am  F  Dm  G
        Am  F  Dm  F
        Am  F  A#  G
 
Druga kitara z wah-wah efektom:
e|------------------|
B|------------------|
G|-h9p0h9p0h9p0h9p0-|  -- 3x
D|------------------|
A|------------------|
E|------------------|
 
e|-------------------------------------------------------10--|
B|----10--12--13v-13v--12--13v-13v--12--13-------------------|
G|-9----------------------------------------10--9--10p9------|
D|-----------------------------------------------------------|
A|-----------------------------------------------------------|
E|-----------------------------------------------------------|
 
e|-12-12--10--12p10-12-12-12-10--12p10-12/13--13--12-13--13v--13v-13v-|
B|--------------------------------------------------------------------|
G|--------------------------------------------------------------------|
D|--------------------------------------------------------------------|
A|--------------------------------------------------------------------|
E|--------------------------------------------------------------------|
 
e|-0----0----0----13--------------------------------------------------------------15----\--|
B|-12---13---13---13--13-13/15-15--13-13/15-13--12----------------------------15--------\--|
G|--------------------------------------------------12--12--12-12--12--12-12------------\--|
D|-----------------------------------------------------------------------------------------|
A|-----------------------------------------------------------------------------------------|
E|-----------------------------------------------------------------------------------------|
 
 
BRIDGE:
 
   E             Am
e|-0--0-0--0-0-0-0--0-0--0-0-0-|
B|-0--0-0--0-0-0-1--1-1--1-1-1-|
G|-1--1-1--1-1-1-2--2-2--2-2-2-|  -- 4x
D|-2--2-2--2-2-2-2--2-2--2-2-2-|
A|-2--2-2--2-2-2-0--0-0--0-0-0-|
E|-0--0-0--0-0-0---------------|
 
      E       Am      E         Am            E
        Sam je pravil, da je pisal, kar je čutil,
           F         G
        danes pa prodaja neke slinaste
               E
        niti omembe vredne pesmice.
 
   E        Am       E         Am
e|----------------------------------0----|
B|--------------1---------0--------1-1---|
G|-----1-------2---------1-1------2---2--|  v tretji ponovitvi prve kitare
D|----2-----------------2---2----------2-|  (sam je pravil...)
A|----------0----------------2-0---------|
E|-0-----------------0-------------------|
 
   E             F             G                           E
e|--------------------------------------------------------------------------------------|
B|--------------------------------------------------------------------------------------|
G|-9--9-9--9-9-9-10-1010-10101012-1212-12121212-1212-12121216-1616-16161616-1616-161616-|
D|--------------------------------------------------------------------------------------|
A|-7--7-7--7-7-7-8--8-8--8-8-8-10-1010-10101010-1010-10101014-1414-14141414-1414-141414-|
E|--------------------------------------------------------------------------------------|
 
 
REFREN 3:
 
   Am       F       G       E
e|----------------------------------|
B|----------------------------------|
G|----------------------------------|  -- 6x
D|----------------------------------|
A|-0--3--2--3--3-2--5--5--5-2--2-3--|
E|----------------------------------|
 
            Am      F           G
        A vsi ne vedo, da so nasedli
              E               Am
        vsem tem hinavskim lažem.
              F            G 
        Ne vedo, da le strmijo
               E                   Am
        v stvari, ki v bistvu jih ni.
               F            G      E                Am
        Žalostno, da ti lažnivi dobijo denar le tako,
                   F              G      E
        da samo sranje na police filajo.
     Am       F    G   E
        Ne vedo... 
     Am       F    G   E
        Ne vedo...
 
 
OUTRO:
        (Am  F  G  E  ) 3x
        Am  F  A#  G
 
Druga kitara z wah-wah efektom:
        4x
e|--------------|-------------------------------------------|
B|--------------|-------------------------------------------|
G|-4---5--5-5-5-|-4-5-7/9--7-5--4-4-5--7-5-7/9--109--7-7-9--|
D|--------------|-------------------------------------------|
A|-2---3--3-3-3-|-2-3-5/7--5-3--2-2-3--5-3-5/7--8-7--5-5-7--|
E|--------------|-------------------------------------------|
 
e|-------------------------------------------------------------------------------------------------------|
B|-------------------------------------------------------------------------------------------------------|
G|-9--1010109--9--10-10-9--9/12-12-12-12\101010109-9-9-9-7--7--9--9--7--7--5--5--3--3-----3-3----/12-----|
D|-------------------------------------------------------------------------------------------------------|
A|-7--8-8-8-7--7--8--8--7--7/10-10-10-10\8-8-8-8-7-7-7-7-5--5--7--7--5--5--3--3--1--1-----1-1----/10-----|
E|-------------------------------------------------------------------------------------------------------|
 


trzalica bartrzalica bar

Dodaj komentar


Varnostna koda
Osveži

  Iskanje

config

      Zadnji komentarji