tablatura akordi besedilo   Male Roke / Voda (tab)

trzalica.com besedilo akordi tablature

Legenda ikon:


Pogoji uporabe.    

besedilo z akordi besedilo z akordi
tablature tablatura (tabulatura)
tablature tablatura za bas
tablature videolekcija

GuitarPro GutarPro (GP)
note Note (v PDF formatu)
sibelius Sibelius (SIB), itd.
..

Oglej si še:

  Dan D
 
Siddharta
tablatura akordi besedilo  Voda (tab)
tablatura akordi besedilo  Male Roke (tab)
videolekcija videolekcija - Voda

trzalica bar

 __________________________________________________________
| ________________________________________________________ |
||Izvajalec: .... Dan D & Siddharta                       ||
||Naslov: ....... Male Roke / Voda (Viktorji 2007)        ||
||Album: ........ Katere barve je tvoj dan (Ponatis)      ||
||Leto izida: ... 2007                                    ||
||________________________________________________________||
||Vrsta transkripcije: .... Besedilo akordi in tablature  ||
||Transkripcijo izdelal: .. odem81 (Ta e-poštni naslov je zaščiten proti smetenju. Potrebujete Javascript za pogled.)     ||
||Domača stran: ........... www.trzalica.com              ||
||Datum nastanka:.......... 12.April.2007                 ||
||________________________________________________________||
|__________________________________________________________|

================================================================================================
 
LEGENDA ZNAKOV:
p  = pull off
/  = slide up
^  = bend up za cel ton
^ˇ = Bend up za cel ton, nato release bend
 
PRIJEMI AKORDOV:
 
C# - X 4 6 6 6 4
c# - X 4 6 6 5 4
E  - 0 2 2 1 0 0
f# - 2 4 4 2 2 2
F# - 2 4 4 3 2 2
g# - 4 6 6 4 4 4
A  - X 0 2 2 2 0
h  - X 2 4 4 3 2
D  - X 5 7 7 7 5
a  - X 0 2 2 1 0
G  - 3 5 5 4 3 3
 
================================================================================================
 
UVOD 'Voda':
 
   f# C# g# h
   F# C# g# h
 
 
VERZ 'Male roke' (Tokac):
 
   f#             C#               f#
Od kod so te male roke ki jih ne poznam
  f#            C#               f#   
Zakaj vse zle besede nastale so tam
  h               D
Izbrisano vse na silo
   A             E
ostaja le tisti vir
     h            D        C#     f#
Priznavajo le pribito kar nudi jim papir
 
 
VERZ 'Voda' (Tomi):
 
   F#   c#              g#   h   F#              c#              g#    h
In pusti naj te nosi voda, aha   para, para, para, pararararararara, aha
   F#   c#              g#   h   F#              c#              g#    h
In pusti naj te nosi voda, aha   para, para, para, pararararararara, aha
 
 
PREHOD: 
 
   h f# A E G A E D
 
 
VERZ 'Voda' (Tokac):
      F#
        Bolečino pijemo 
      c#
        Skozi dno se vidi svet
      g#
        Lepota je skrita v nas
      h
        Vse navidezno je laž
 
VERZ 'Voda' (Tomi):
      F#
        Sijaj in beda, drek zlato
      c#
        V žepih ni to kar imaš
      g#
        Pripada ti le to 
      h                 F#  c#    g#     h
        Kar na srečo zaigraš...zaigraj  jeeee
 
 
REFREN 'Male roke' (Tokac):
  E      h         A
Zdaj ne vidi se vrhov za nas
f#           D           E
vedno bolj oddaljen je svet
      h           f#
Ni besed ki bi stopile moč
A           D           E
ta pogled izda vse te lepote
 
REFREN 'Male roke' (Tomi):
     h            f#
A ne vemo, kaj je to
     E         D
ko izginjajo napake
h        f#    E  f#
In vse ostalo.
 
 
SOLO 'Voda':
   a
e|----------|
H|----------|
G|----------|
D|------2---|
A|-1/3------|
E|----------|
 
 
  (E  h  f#  a  )  4x
   a
 
 
e|------------------------10--10--9---9---7--7--9---9-----9------12p9--------9/12--12------15p12----------|
H|---7^ˇ-5--7^-----7^ˇ----12--12--10--10--9--9--10--10-------10--------10---10/13------13---------13------|
G|--------------------------------------------------------------------------------------------------14----|
D|--------------------------------------------------------------------------------------------------------|
A|--------------------------------------------------------------------------------------------------------|
E|--------------------------------------------------------------------------------------------------------|
                                                                                    
e|-16--16---14--14---12--12---10--10--9---9---7--7--9---9-----9------12p9--------9/12--12------14p12------|
H|-17--17---17--17---14--14---12--12--10--10--9--9--10--10-------10--------10---10/13------13---------13--|
G|------------------------------------------------------------------------------------------------------14|
D|--------------------------------------------------------------------------------------------------------|
A|--------------------------------------------------------------------------------------------------------|
E|--------------------------------------------------------------------------------------------------------|
 
e|------------------------10--10--9---9---7--7--9---9-----9------12p9--------9/12--12------14p12----------|
H|---7^ˇ-5--7^-----7^ˇ----12--12--10--10--9--9--10--10-------10--------10---10/13------13---------13------|
G|--------------------------------------------------------------------------------------------------14----|
D|--------------------------------------------------------------------------------------------------------|
A|--------------------------------------------------------------------------------------------------------|
E|--------------------------------------------------------------------------------------------------------|
 
e|-16--16---14--14---12--12---10--10--9---9---7--7--9---9------|
H|-17--17---17--17---14--14---12--12--10--10--9--9--10--10-----|
G|-------------------------------------------------------------|
D|-------------------------------------------------------------|
A|-------------------------------------------------------------|
E|-------------------------------------------------------------|   
 
e|-9--9--9--9--9--9--12-12-12-12-12-12-12-12-15-15-15-15-15-15-15-15-|
H|-10-10-10-10-10-10-13-13-13-13-13-13-13-13-13-13-13-13-13-13-13-13-|
G|-------------------------------------------------------------------|
D|-------------------------------------------------------------------|
A|-------------------------------------------------------------------|
E|-------------------------------------------------------------------|
 
 
REFREN 'Male roke' in 'Voda' (Tokac in Tomi):
 
        E  h
Zdaj ne vidi se vrhov za nas
f#   a
Pusti naj te nosi voda
        E  h
Zdaj ne vidi se vrhov za nas
f#   a
Pusti naj te nosi voda
        E  h
Zdaj ne vidi se vrhov za nas
f#                  a
Streljaj ravno v oči, streljaj ravno
  E  h
Zdaaaaaaaaaj
f#   a
Pusti naj te nosi voda
 
 
ZAKLJUČEK:
 
   E
 
e|--------------------------|
H|--------------------------|
G|--4-4-2-2-1-1-------------|
D|--------------2-2---------|
A|--------------------------|
E|--------------------------|
 


trzalica bar
trzalica bar

Dodaj komentar


Varnostna koda
Osveži

  Iskanje

config