tablatura akordi besedilo   Nisem več s tabo (tab) v2

trzalica.com besedilo akordi tablature

Legenda ikon:


Pogoji uporabe.    

besedilo z akordi besedilo z akordi
tablature tablatura (tabulatura)
tablature tablatura za bas
tablature videolekcija

GuitarPro GutarPro (GP)
note Note (v PDF formatu)
sibelius Sibelius (SIB), itd.
..

Oglej si še:

besedilo z akordi  Nisem več s tabo
tablatura akordi besedilo  Nisem več s tabo (tab) v1
tablatura akordi besedilo  Nisem več s tabo (tab) v3
  Nisem več s tabo (gp)

trzalica bar

 Izvajalec: ..................... Big Foot Mama
 Skladba: ....................... Nisem več s tabo
 Transkripcijo izdelal .......... Mihec
 Vrsta transkripcije ............ tabulatura 
 Domača stran transkripcije ..... www.bigfootmama.tk
================================================================================================


|-------------------------------------------------------------------| 
|-Avtor tabov:Mihec:Ta e-poštni naslov je zaščiten proti smetenju. Potrebujete Javascript za pogled.
|-------------------------------------------------------------------|  

Nisem več s tabo

intro

E|---------------------------------|
B|-----5-----6-----8-----6-----5---|
G|-5-5---5-5---5-5---5-5---5-5---5-|
D|---------------------------------|
A|---------------------------------|
E|---------------------------------|

E|-------------------------------------------------|
B|-------12-------13-------15-------13-------12----|
G|-12-12----12-12----12-12----12-12----12-12----12-|
D|-------------------------------------------------|
A|-------------------------------------------------|
E|-------------------------------------------------|

E|-------------------------------------------------|
B|-------13-------15-------17-------15-------13----|
G|-14-14----14-14----14-14----14-14----14-14----14-|
D|-------------------------------------------------|
A|-------------------------------------------------|
E|-------------------------------------------------|

E|-------------------------------------------------|
B|-------12-------13-------15-------13-------12----|
G|-12-12----12-12----12-12----12-12----12-12----12-|
D|-------------------------------------------------|
A|-------------------------------------------------|
E|-------------------------------------------------|


REFREN: 
C5 G5 A5 G5 ali C G Am G


SOLO:
e----8-8----8-8----8----8-8-----------------------------
B-6b-----6b-----6b---6b-----6b---6p4--6s8--6--6-6s3-
G---------------------------------------------------------
D---------------------------------------------------------
A---------------------------------------------------------
E---------------------------------------------------------

e---------------------------------------------------------
B---------------------------------------------8----------
G-----5-7-5-7br-5------5-7-7b--7p5-5-----------------
D---7-------------7--7------------------7-5------5-----
A--------------------------------------------------------
E--------------------------------------------------------

e----8-8----8-8----8----8-8----8-8------
B-6b-----6b-----6b---6b-----6b-----6b---
G---------------------------------------
D---------------------------------------
A---------------------------------------
E---------------------------------------

e------15-------15-----15--------15-------
B-15b------15b------15b----15b-----15br~--
G-----------------------------------------
D-----------------------------------------
A-----------------------------------------
E-----------------------------------------

e-------------------------------------------------------
B----15br-13----13-15----13-15----13----15----13-
G-14---------14-------14-------14----14----14------
D------------------------------------------------------
A------------------------------------------------------
E------------------------------------------------------

e------------------------------------------
B---------------12-13-15---13-12-------
G---12-------12-------------------12----
D-----------------------------------------
A-----------------------------------------
E-----------------------------------------

h=hammer on
p=pull off
s=slide
~=vibratoIntro

trzalica bar

trzalica bar

Dodaj komentar


Varnostna koda
Osveži

  Iskalnik

config
Account Suspended
Account Suspended
This Account has been suspended.
Contact your hosting provider for more information.