tablatura akordi besedilo   Uuuu (tab)

trzalica.com besedilo akordi tablature

Legenda ikon:


Pogoji uporabe.    

besedilo z akordi besedilo z akordi
tablature tablatura (tabulatura)
tablature tablatura za bas
tablature videolekcija

GuitarPro GutarPro (GP)
note Note (v PDF formatu)
sibelius Sibelius (SIB), itd.
..


 Izvajalec: ................... Čuki
 Skladba: ..................... Uuuu

 Transkripcijo izdelal ........ NoMAD & AliAs / 2008
 Vrsta transkripcije .......... Besedilo z akordi in tabulaturo 
 Domaca stran transkripcije ... www.trzalica.com

================================================================================

 spodaj - na koncu 
 je dodana še verzija za enostavnejše brenkanje, s kapodastrom

================================================================================

INTRO:

       A#m   A#m   D#m   Fm
       A#m

e|--------------------------------------------------------------------------------------------|
B|------------------------------------------------------9--9--9--7-7-7-6-6-6-------6h7p6-(6)--|
G|-------5h6-5h6-----------5h6-5h6-----------5h6-5h6-8-/10-10-10-8-8-8-6-6-6-5h6p5------------|  -- 2x
D|-----6---------8-------6---------8-------6--------------------------------------------------|
A|-6-8---------------6-8---------------6-8----------------------------------------------------|
E|--------------------------------------------------------------------------------------------|

e|--------------------------------------------|
B|--------------------------------------------|
G|-------5h6-5h6------------------------------|
D|-----6---------8-------8--------------------|
A|-6-8---------------------6-8----6-----------|
E|------------------------------9----8-6------|


       A#m
      Sam u sobi spim 
       C#
     njenih čarov svet
       G#
      misel nanjo ne pusti da
       A#m         G#
      več ne smem oči zapret
       A#m
 ker njen iskriv nasmeh
       C#
      žarki u očeh
       G#
      mi zažgejo srčne rane
       A#m         G#
    vržejo  me  spet po tleh.

       A#m                  
      Uuu uuu uuu u ....... \
                  D#m        \
      Uuu uuu uuu u .......   \
                  A#m          > 2x
      Uuu uuu uuu u .......   /
       G#         A#m        /
      Uuu uuu uuu u ....... /

Prehod:
e|-------------------------------|
B|-6-6-4-4--2--2---1-2-1---2-----|
G|-6-6-5-5--3--3---1-3-1-1-3-----|
D|-----------------------1-3-----|
A|-------------------------------|
E|-------------------------------|


    Zdaj bežim pred njo
    tečem kot lahko
    misel nanjo me ne ujame
    prime spet me za roko
    mi nežno šepeta
    spet potegne tja
    kjer ni časa ne bojazni
    kdo bolj koga rad ima

                 
      Uuu uuu uuu u ....... 

SOLO:
       A#m   A#m   D#m   Fm
       A#m   C#    D#m   Fm
       A#m

e|---------------------------------------------------------------------------|
B|---------------------------------------------------------------------------|
G|-------5h6-5h6-----------5h6-5h6-----------5h6-5h6-8---------6h8-6h8-/10---|
D|-----6---------8-------6---------8-------6-------------8-6-8---------------|
A|-6-8---------------6-8---------------6-8-----------------------------------|
E|---------------------------------------------------------------------------|
 




 


e|------------------------------------|
B|------------------------------------|
G|-6h8-6h8p6\5------------------------|
D|-------------8-6h8--8-6-------------|
A|------------------------8-6---------|
E|----------------------------6-6-\---|

    Pride kakšen dan
    takšen kot iz sanj
    zdi se ko da nikdar
    nisva skupaj se vtopila vanj
    in zdi se da lahko
    svojo le roko
    spet zajamem srečo
    ne pogrešam je tako zelo.

      Uuu uuu uuu u ....... 

e|-----------------------------------------------------------------------------|
B|-----------------6-6-4-4--2--2----6-6-6--7--7---7-7-7-7--6--6---1-2-1---2----|
G|-------5h6-5h6---6-6-5-5--3--3----6-6-6--8--8---8-8-8-8--6--6---1-3-1-1-3----|
D|-----6---------8------------------------------------------------------1-3----|
A|-6-8-------------------------------------------------------------------------|
E|-----------------------------------------------------------------------------|


       A#m            
         parapa para parapa ...   
       A#m                          
         parapa para parapa ...     
       D#m                       Fm 
         ......................   

       Am            
         parapa para parapa ...   
       C#                          
         parapa para parapa ...     
       Dm                       Fm  
         ......................  

                                Am
         ......................  



================================================================================

 še obljubljena enostavna verzija 
 kapodaster na 1. polju

================================================================================
       Am   Am   Dm   E
       Am   C    Dm   E     
       Am

       Am
      Sam u sobi spim 
       C
     njenih čarov svet
       G
      misel nanjo ne pusti da
       Am         G
      več ne smem oči zapret
       Am
 ker njen iskriv nasmeh
       C
      žarki u očeh
       G
      mi zažgejo srčne rane
       Am         G
    vržejo  me  spet po tleh.

       Am                  
      Uuu uuu uuu u ....... \
                  Dm         \
      Uuu uuu uuu u .......   \
                  C            > 2x
      Uuu uuu uuu u .......   /
       G          Am         /
      Uuu uuu uuu u ....... /

    Zdaj bežim pred njo
    tečem kot lahko
    misel nanjo me ne ujame
    prime spet me za roko
    mi nežno šepeta
    spet potegne tja
    kjer ni časa ne bojazni
    kdo bolj koga rad ima

                 
      Uuu uuu uuu u ....... 

       Am   Am   Dm   E
       Am   C    Dm   E     
       Am


    Pride kakšen dan
    takšen kot iz sanj
    zdi se ko da nikdar
    nisva skupaj se vtopila vanj
    in zdi se da lahko
    svojo le roko
    spet zajamem srečo
    ne pogrešam je tako zelo.


      Uuu uuu uuu u ....... 


       Am            
         parapa para parapa ...   
       Am                          
         parapa para parapa ...     
       Dm                       E  
         ......................   

       Am            
         parapa para parapa ...   
       C                          
         parapa para parapa ...     
       Dm                       E  
         ......................  

                                Am
         ......................  



trzalica bar

trzalica bar

Dodaj komentar


Varnostna koda
Osveži

  Iskanje

config