tablatura akordi besedilo   Otroci sonca (tab)

trzalica.com besedilo akordi tablature

Legenda ikon:


Pogoji uporabe.    

besedilo z akordi besedilo z akordi
tablature tablatura (tabulatura)
tablature tablatura za bas
tablature videolekcija

GuitarPro GutarPro (GP)
note Note (v PDF formatu)
sibelius Sibelius (SIB), itd.
..

 
   ___________________________________________________________
  |  _______________________________________________________  |
  | |                                                       | |
  | | IZVAJALEC: .............. Dan-d                       | |
  | | PESEM: .................. Otroci sonca                | |
  | | ALBUM: .................. Katere barve je tvoj dan?   | |
  | | LETO IZIDA: ............. 2004                        | |
  | |_______________________________________________________| |
  | |                                                       | |
  | |  Vrsta transkripcije: Tablatura in besedilo z akordi  | |
  | |  Avtor transkripcije: AliAs                           | |
  | |  Domača stran transkripcije: www.trzalica.com       | |
  | |  Datum nastanka transkripcije: 16.7.2007              | |
  | |_______________________________________________________| |
  |___________________________________________________________|
 
================================================================================================
 
Prijemi akordov:
C#m - X 4 6 6 5 X
F#m - 2 4 4 2 2 2
A   - X 0 2 2 2 0
D   - X 0 0 2 3 2
E   - 0 2 2 1 0 0
C   - X 3 2 0 1 0
Am  - X 0 2 2 1 0
 
================================================================================================
www.trzalica.com    www.trzalica.com    www.trzalica.com    www.trzalica.com    www.trzalica.com
================================================================================================
 
INTRO:
 
e|---0---0---0---0---0---0---0---0-|
H|-4---4---4---4---4---4---4---4---|
G|---------------------------------|
D|---------------------------------|
A|---------------------------------|
E|---------------------------------|
 
e|---------------------------------------------------------|
H|-5-5-5-5-5---5-5-5-5---5-5-------------------------------|
G|-6-6-6-6-6---6-6-6-6---6-6---6-6-6-6-6---6-6-6-6---5-5---|  -- 4X
D|-6-6-6-6-6---6-6-6-6---6-6---7-7-7-7-7---7-7-7-7---6-6---|
A|-4-4-4-4-4---4-4-4-4---4-4---4-4-4-4-4---4-4-4-4---3-3---|
E|---------------------------------------------------------|
             M         M     M           M         M     M
 
 
 
VERZ 1:
 
e|---0---0---0---0---0---0---0---0-|
H|-4---4---4---4---4---4---4---4---|  se ponavlja
G|---------------------------------|  dušimo z dlanjo (palm muted)
D|---------------------------------|  Proti koncu verza ne dušimo vee.
A|---------------------------------|  
E|---------------------------------|
 
 
F#m                A
Odprl bom vsa okna
           C#m
Čakal bom na vas
F#m           A
Otroci sonca,
           C#m
kričite na ves glas.
F#m
I look you in the eye bitch
       A               C#m
listen up, listen up.....
F#m                                     A     C#m
Just be yourself kid and you will shine...
 
Prehod v refren:
 
...and have some fun, bring it on...
   D
e|-2------2-------|
H|-3------3-------|
G|-2------2-------|
D|-0------0-------|
A|-0------0-------|
E|----------------|
 
 
 
REFREN 1:
 
 
      E                          C      Am
In ko iz zemlje slišiš glas...
      E                          C      D
vse kar je dobro je v nas...
 
 
 
PREHOD V VERZ 2:
 
e|---------------------------------------------------------|
H|-5-5-5-5-5---5-5-5-5---5-5-------------------------------|
G|-6-6-6-6-6---6-6-6-6---6-6---6-6-6-6-6---6-6-6-6---5-5---|  -- 2X
D|-6-6-6-6-6---6-6-6-6---6-6---7-7-7-7-7---7-7-7-7---6-6---|
A|-4-4-4-4-4---4-4-4-4---4-4---4-4-4-4-4---4-4-4-4---3-3---|
E|---------------------------------------------------------|
             M         M     M           M         M     M
 
Druga kitara:
e|-----------------------------|
H|-----------------------------|
G|-6----6-8--9--11---11-4--5---|  -- 2x
D|-----------------------------|
A|-4----4-6--7--9----9--2--3---|
E|-----------------------------|
 
 
 
VERZ 2:
 
e|---0---0---0---0---0---0---0---0-|
H|-4---4---4---4---4---4---4---4---|  se ponavlja
G|---------------------------------|  dušimo z dlanjo (palm muted)
D|---------------------------------|  Proti koncu verza ne dušimo več.
A|---------------------------------|  
E|---------------------------------|
 
 
F#m                A
Odprl bom vsa okna
           C#m
Čakal bom na vas
F#m           A
Otroci sonca,
           C#m
kričite na ves glas.
F#m
I realize who the fuck i'm
   A                                      C#m
a man with the will, with its own program...  
F#m                        A        C#m
Somimes I fell like shit...
 
Prehod v refren:
 
pull a switch, turn on the lights, bring it on...
   D
e|-2------2-------|
H|-3------3-------|
G|-2------2-------|
D|-0------0-------|
A|-0------0-------|
E|----------------|
 
 
 
REFREN 2:
 
 
      E                          C      Am
In ko iz zemlje slišiš glas...
      E                          C      D
vse kar je dobro je v nas...
 
 

trzalica posnetek bar

trzalica bar
 

Dodaj komentar


Varnostna koda
Osveži

  Iskanje

config