tablatura akordi besedilo   Voda (tab)

trzalica.com besedilo akordi tablature

Legenda ikon:


Pogoji uporabe.    

besedilo z akordi besedilo z akordi
tablature tablatura (tabulatura)
tablature tablatura za bas
tablature videolekcija

GuitarPro GutarPro (GP)
note Note (v PDF formatu)
sibelius Sibelius (SIB), itd.
..

Oglej si še:

  Male Roke / Voda (tab)
videolekcija  videolekcija - Voda

trzalica bar

 Izvajalec: ..................... Dan D
 Skladba: ....................... Voda
 Transkripcijo izdelali ......... posnjak, tejo009, AliAs
 Domača stran transkripcije ..... www.trzalica.com
 
Akordi:
E    0 2 2 1 0 0
Hm   X 2 4 4 3 2
F#m  2 4 4 2 2 2
Am   X 0 2 2 1 0
Besedilo: vzeto s strani www.dan-d.net
 
================================================================================
 
Uvod:
  E  Hm  F#m  Am  (akordi se ponavljajo skozi celo pesem)
 
e----------------------10--10--9---9---7--7--9---9-----9------12p9--------9/12--12------15p12-------
h-7^ˇ---5--7^---7^ˇ----12--12--10--10--9--9--10--10-------10--------10---10/13------13---------13---
g---------------------------------------------------------------------------------------------------
d---------------------------------------------------------------------------------------------------
a---------------------------------------------------------------------------------------------------
e---------------------------------------------------------------------------------------------------
    
e-16--16---14--14---12--12---10--10--9---9---7--7--9---9-----9------12p9--------9/12--12------14p12-------
h-17--17---17--17---14--14---12--12--10--10--9--9--10--10-------10--------10---10/13------13---------13---
g---------------------------------------------------------------------------------------------------------
d---------------------------------------------------------------------------------------------------------
a---------------------------------------------------------------------------------------------------------
e---------------------------------------------------------------------------------------------------------
 
 
E             Hm
Bolečino pijemo 
                    F#m
Skozi dno se vidi svet
                    Am
Lepota je skrita v nas
                  E
Vse navidezno je laž
                        Hm
Sijaj in beda, drek zlato
                    F#m
V žepih ni to kar imaš
              Am
Pripada ti le to 
                  E  Hm   F#m   Am
Kar na srečo zaigraš...zaigraj
 
 
Refren:
    E  Hm               F#m  Am
In pusti naj te nosi voda, aha
 E             Hm                F#m  Am
para, para, para, pararararararara, aha
 
 
  E                  Hm
Povej vsem da si odkrit
                   F#m
Streljaj ravno v oči
                    Am
Poljubi roko bližnjega
                    E
Da bi videl če še znaš
                     Hm
Tam kjer si ustavil film
                       F#m
Tam kjer ostali so ljudje
                    Am
Spomni se zdaj ko si sam
                    E  Hm            F#m  Am
Reci ljubiti še znam... ljubiti še znam
 
 
Refren:
    E  Hm               F#m  Am
In pusti naj te nosi voda, aha
 E             Hm                F#m  Am
para, para, para, pararararararara, aha
 
 
  E  Hm  F#m  Am
 
 
e----------------------10--10--9---9---7--7--9---9-----9------12p9--------9/12--12------15p12-------
h-7^ˇ---5--7^---7^ˇ----12--12--10--10--9--9--10--10-------10--------10---10/13------13---------13---
g---------------------------------------------------------------------------------------------------
d---------------------------------------------------------------------------------------------------
a---------------------------------------------------------------------------------------------------
e---------------------------------------------------------------------------------------------------
    
e-16--16---14--14---12--12---10--10--9---9---7--7--9---9----9------12p9-------9/12--12--12--12--12--14--12-
h-17--17---17--17---14--14---12--12--10--10--9--9--10--10------10--------10--10/13--13--13--13--13--13--13-
g----------------------------------------------------------------------------------------------------------
d----------------------------------------------------------------------------------------------------------
a----------------------------------------------------------------------------------------------------------
e----------------------------------------------------------------------------------------------------------
 
 
Refren:
    E  Hm               F#m  Am
In pusti naj te nosi voda, aha
 E             Hm                F#m  Am
para, para, para, pararararararara, aha
 
 
  E  Hm  F#m  Am
 

trzalica bar

trzalica bar

Dodaj komentar


Varnostna koda
Osveži

  Iskanje

config