tablatura akordi besedilo   Any place to go (tab)

trzalica.com besedilo akordi tablature

Legenda ikon:


Pogoji uporabe.    

besedilo z akordi besedilo z akordi
tablature tablatura (tabulatura)
tablature tablatura za bas
tablature videolekcija

GuitarPro GutarPro (GP)
note Note (v PDF formatu)
sibelius Sibelius (SIB), itd.
..

                       ___________________________________________________________
                      |  _______________________________________________________  |

                      | |                                                       | |
                      | | IZVAJALEC: .............. Elvis Jackson               | |
                      | | PESEM: .................. Any Place To Go             | |
                      | | ALBUM: .................. Radio unfriendly            | |
                      | | LETO IZIDA: ............. 2015                        | |
                      | | DOMAČA STRAN: ........... www.elvisjackson.com        | |
                      | |_______________________________________________________| |
                      | |                                                       | |
                      | |         Transkripcija: AliAs / februar, 2015          | |
                      | |                                                       | |
                      | |            w w w . t r z a l i c a . c o m            | |
                      | |_______________________________________________________| |
                      |___________________________________________________________|
 
===========================================================================================================
 
LEGENDA ZNAKOV:
        × = dušenje z dlanjo
       ...= tremolo ubiranje
        p = pull off
        h = hammer on
        / = slide up
        \ = slide down
 
===========================================================================================================
www.trzalica.com     www.trzalica.com     www.trzalica.com     www.trzalica.com     www.trzalica.com
===========================================================================================================
 
Uvod:
 
   D5E5    D5E5     C5            D5            G5E5
e|--------------------------------------------------------------|
H|--------------------------------------------------------------|
G|--------------------------------------------------------------|
D|-7-99-99-7-99-99--5-5555-5-5555-7-77-77-7-77-7----------------|
A|-5-77-77-5-77-77--3-3333-3-3333-5-55-55-5-55-55-2-2222-2-2222-|
E|----------------------------------------------3-0-0000-0-0000-|  \
                                                                    \_ 2x
   D5E5    G5 E5G5 C5            D5            G5E5                 /
e|-------------------------------------------------------------|   /
H|-------------------------------------------------------------|
G|-------------------------------------------------------------|
D|-7-99-99-12-9-12-5-5555-5-5555-7-77-77-7-77-7----------------|
A|-5-77-77-10-7-10-3-3333-3-3333-5-55-55-5-55-55-2-2222-2-2222-|
E|---------------------------------------------3-0-0000-0-0000-|
 
   E5              G5  A5     E5              A5  G5
e|-----------------3-3----------------------------3--2-2-2-|
H|-3--555-5--3-3-333-3-2-2-2--3--555-5--3-3-332-2-3--3-3-3-|
G|-4--444-4--4-4-44----2-2-2--4--444-4--4-4-442-2----------|  2x
D|---------------------------------------------------------|
A|---------------------------------------------------------|
E|---------------------------------------------------------|
 
 
Verz:
 
           E5             G5      A5
       Oh yes she always turns me on,
        E5             A5     G5
       turns me on and on.
        E5            G5       A5
       Yes my single fear has gone,
           E5                     A5     G5
       it feels like nothing is wrong.
 
   E5              G5    A5        E5              A5    G5
e|-----------------3--3--0---0-0-0-----------------0--0--3---2-2-2-|
H|-----------------3--3--2---2-2-2-----------------2--2--3---3-3-3-|
G|-----------------0--0--2---2-2-2-----------------2--2--0---------|  2x
D|-----------------------------------------------------------------|
A|-----------------------------------------------------------------|
E|-0-00000-0-00000-----------------0-00000-0-00000-----------------|
   ***************                 ***************
 
 
Refren:
 
            E5          C5             G5  H5  D5
       Hey you is there any place to go?
                E5               C5               H5  G5  F5
       Is there any place to go, any place to go?
 
 
Prehod v verz:
 
   E5              G5  A5     E5              A5  G5
e|-----------------3-3----------------------------3--2-2-2-|
H|-3--555-5--3-3-333-3-2-2-2--3--555-5--3-3-332-2-3--3-3-3-|
G|-4--444-4--4-4-44----2-2-2--4--444-4--4-4-442-2----------|  4x
D|---------------------------------------------------------|
A|---------------------------------------------------------|
E|---------------------------------------------------------|
 
 
Verz:
 
       Oh yes she makes meditate,
       playing with my faith.
       Simple fictions look so great,
       But should I hesitate
 
   E5              G5    A5        E5              A5    G5
e|-----------------3--3--0---0-0-0-----------------0--0--3---2-2-2-|
H|-----------------3--3--2---2-2-2-----------------2--2--3---3-3-3-|
G|-----------------0--0--2---2-2-2-----------------2--2--0---------|  2x
D|-----------------------------------------------------------------|
A|-----------------------------------------------------------------|
E|-0-00000-0-00000-----------------0-00000-0-00000-----------------|
   ***************                 ***************
 
 
       Hm                 A
       Yeah she makes me meditate,
         Em             F#
       playing with my faith.
       Hm                 A
       Can't believe she looks so great.
         G
       Should I hesitate?
 
   Hm        A         Em        F#    Hm        A         G
e|---------------------------------------------------------3-3-3--2--|
H|-3-3-5--3--2-2-3--2--5-5-5--5--2--2--3-3-5--3--2-2-3--2--3-3-3--3--|
G|-4-4-4--4--2-2-2--2--4-4-4--4--3--3--4-4-4--4--2-2-2--2------------|
D|-------------------------------------------------------------------|
A|-------------------------------------------------------------------|
E|-------------------------------------------------------------------|
 
 
Refren:
 
            E5          C5             G5  H5  D5
       Hey you is there any place to go?
                E5               C5             G5  H5  C5
       Is there any place to go, any place to go?
            E5          C5             G5  H5  D5
       Hey you is there any place to go?
                E5               C5               H5  G5  F5
       Is there any place to go, any place to go?
 
 
Most:
    4x      1x      3x      4x
e|-------|-------|-------|-------|-------------|
H|-------|-------|-------|-------|-------------|
G|-------|-------|-------|-------|-8-----7-----|
D|-------|-------|-------|-------|-8--5--7--8--|
A|-4p3p2-|-3h4h5-|-------|-4p3p2-|-6--5--5--8--|
E|-------|-------|-3h4h5-|-------|----3-----6--|
 
e|--------------------------------------------------------------|
H|--------------------------------------------------------------|
G|--------------------------------------------------------------|
D|-5...---6...---7...---8...---5...6...7...8...5...6...7...8...-|
A|--------------------------------------------------------------|
E|--------------------------------------------------------------|
 
 
Solo:
 
   E5          C5                G5                H5  D5
e|----------------------------------------------------------|
H|-12----------10h12p10-------------------------------------|
G|-12---9---12----------9--\-----12-14-12-11----------------|
D|---------------------------/14-------------14-12-13--14---|
A|----------------------------------------------------------|
E|----------------------------------------------------------|
 
   E5             C5              G5               H5 C5
e|---------------------------------------------------------|
H|-12\-----------------------------------------------------|
G|-12\-9/11-11/12-12/14-14-12-12---------------------------|
D|---------------------------------------------------------|
A|-----7/9---9/10-10/12-12-10-10---------------------------|
E|--------------------------------3/5-5/7-7/8-8/10\7--8\---|
 
 
Prehod v refren:
e|--------------|
H|--------------|
G|----4---------|
D|-2--4--5--7---|
A|-2--2--5--6---|
E|-0-----3------|
 
 
Refren:
 
            E5          C5             G5  H5  D5
       Hey you is there any place to go?
                E5               C5               H5  G5  F5
       Is there any place to go, any place to go?
                E5  C5       G5  H5  D5
       Is there any place to go?
                E5  C5       G5  H5  C5
       Is there any place to go?
                E5  C5       G5  H5  D5
       Is there any place to go?
                E5  C5       H5  G5  F5
       Is there any place to go?
 
 
    Is there any place to go?
e|-----------------------------|
H|-----------------------------|
G|--------4/5\4--------7-------|
D|-2------4/5\4-5------7---2---|
A|-2------2/3\2-5------5---2---|
E|-0--0-0-------3--3-3-----0---|
      ***          ***
 
 

trzalica bar

trzalica bar

Dodaj komentar


Varnostna koda
Osveži

  Iskanje

config