tablatura akordi besedilo   Blues (tab)

trzalica.com besedilo akordi tablature

Dolpoteg je spletni arhiv glasbenih zapisov v različnih formatih:


Pogoji uporabe.    

besedilo z akordi besedilo z akordi
tablature tablature (tabulature)
tablature tablature za bas

GuitarPro GutarPro (GP)
note Note (ponavadi v PDF ali JPG formatu)
sibelius Sibelius (SIB)
, itd...

 

 

 

 

 


 

Avtor: Iztok Mlakar
Pesem: Blues
Poslal/Snel: Gregor Posnjak & Jože Zmazek
http://www2.arnes.si/~tverbo/Mlakar.htm
==================================================


Akordi:
 H7: x21202
 A7: x02223
  E: 022100
 C7: x323x3
A7': x02020
  C: x32010 

                                                                  H7              A7              E      H7 
||------------------------------------------------------------------------------2---------------3-0------------2--||
||----------------------------------------------------------------------0-----0---------2-----2---0----------0----||
||*-------------------------------------------------------------------2-----2---------2-----2-----1--------2-----*||
||*-------------------------0-1-2-----0-1-2-1-0---------------------1---------------2-------------2--------------*||
||------0-1-2-1-0-----0-1-2-------0-3-----------3-----0-1-2-1-0---2-------2-------0-------0-------2--0-1-2--------||
||--0-3-----------0-3-----------------------------0-3-----------3---------------------------------0---------------||

                                   C7  H7  A7'C7  H7  A7'                C(*)  H7                         H7              
|----x--x--x--x--x--x--------------3-3-2---0--3-3-2---0------------------0-----2----4-----3-----2---------------2--|
|----x--x--x--x--x--x--------------x-x-0---2--x-x-0---2------------------1-----0------------------------------0----|
|----x--x--x--x--x--x--------------3-3-2---0--3-3-2---0------------------0-x-n-2--4---4-3---3-2---2-1-------2------|
|----x--x--x--x--x--x--------------2-2-1---2--2-2-1---2------------0-1-2-2-----1-----------------------------------|
|----x--x--x--x--x--x--6^-6^-6^-6^-3-3-2---0--3-3-2---0------0-1-2-------3-----2----------------------0-1-2--------|
|-0--x--x--x--x--x--x------------------------------------0-3-------------------------------------------------------|


Zadnji refren ima od C akorda drugacen zakljucek (zgoraj oznaceno z (*)):
  C            H7                                              E7 
|---------0------------2---------------------------------------0-0-0-0-0--|
|-1-----1------------0-----------------------------------------3-3-3-3-3--|
|-----0------------2-------------------------------------------1-1-1-1-1--|
|---2------------1------------6------5------4-----------------------------|
|--------------2-------------------------------------------/7-------------|
|---------------------------7---7--6---6--5---5---4-----0-----------------|

Legenda:
^ pomeni bendanje strune za pol tona
x-n (pri C duru na koncu refrena) je oznaka za razlozeno igranje akorda



Dns bom zabluzu,
kej čem druzga nardit s sabo,
zato, ker tudi boh na mene je pozabu.

Čuj! ma kako glih na mene je mogu pozabit,
jest tega prou rjes ne razumem.
zato ker jest se njega zmislim zmeram,
ben vsaj tist bot, kdr kunem.
Dns bom zabluzu, dns ku človk se bom napil,
k tud boh ni več tisto kar je bil.

Ne se smejat, k je rjesna ta zadeva,
tiho! Da nabo kšn vidu svoja lastna črjeva.
Ne,ne,ne,ne,ne se smejat, ne se smejat,
da ne bo kdu ncoj še joku,
k dns, ej dns imam stršnu tšku roku.
Dns bom zabluzu, dns usega sm kapac
su vrgli s službe me, ku en par škovac

Oštjer dej enu flašu,
ma ne,ne,ne dej kr ti rajši ceu flaškon,
zatu, da ne boš stalno prnašu.
An pole skri s u kanton
k ncoj bom zabluzu,
ncoj bodo glaži letjeli okroh,
dijo di boh.
K ncoj bom zabluzu,
ncoj se mi zmknte vsi izpod noh.

Tiho, tiho če česte dobro svojim zobom,
neč ne bom reku, ne neč ne bom reku, ma ben,
mouču pa tud ne bom.

Naš direktor, o inteligenca,
pravjo da je hodu u šule.
Ben, če mene vprašaste,
jest mu nebi pustu vozit nankar karjole.
Res grozno moreš bet študeran,
tak velik talent, da spraviš cjelu firmu u faliment.

Tak človek, ma ne človek, usranc!
Tak bo mene na cjesto metu,
ma dijo bono, k ga primem za jezik
in ga obrnem okrog ku kejšnu kalcetu.

Ma, zmerom po poplavi bo prvi drek na vrh prplavu.
Ma, da mi nbo kdo slučajno že od kakga sindikata pravu!
Kdr je treba kej nardit, začne mncat sindikat,
ku ta bolan, k ga prtisne srat.

Buh se me usmili,
res mlčk grob sm, pardon,
sej vjeste,
mene maner so učili profesorca šubla in doktor pikun.

Jest ncoj bom zabluzu,
oštjer neč ne glej, ti neč ku dej, ni važno kej,
pej mahar petrolej.
Ncoj bom zabluzu,
cjelu noč, k jutre sem cel dan frej.

Moji prjatli, moji sodelouci,
k smo tolko ljet ukop garali,
an k reveži kukr jest sm, kukr, d me nebi več poznali.

Ne, k sm šou iz ferme,
me še pozdravu ni nobeden,
kukr da me ni več,
kukr da nism enga bozga adijo uredn.

Vsak ahta samu to, da ma na gorkem svoju ret
ma ben, nej bo če že more taku bet.

Oštjer kej čakaš? Hitro!
Kej bo pila klapa praši,
k če že morem brez plehmuske it po riti h maši,
ta večer usim, kar vas je tolje u oštariji zbranih,
pit bom storu, da boste vidli kako je,
kadar en revež gre v maloru.

Pa magari, še sam boh za mene slišat niče več.
a mene ne, jest se ne pustim vržt kr tku neč ne,ne,ne.

Oštjer dej vsim pijaču,
k če ne, bo kažin.
Ne,ne,ne,ne se bat jest bom plaču.
Na, tolje jmaš moj takvin.

Mene na cjesto,
dns so vrgli še en bot.
So rekli, da sem tehnološki višek.
Čuj! ma pero iz oštarije vn,
a ne,ne,ne, čakte klapa,
iz oštarije vn bom šou pej sam,
kadr jest bom tou,
lepo počasi an kukr gospod.

 
trzalica bartrzalica bar

 

 

 

Dodaj komentar


Varnostna koda
Osveži

  Iskanje

config