tablatura akordi besedilo   En glaž vina mi dej (tab)

trzalica.com besedilo akordi tablature

Legenda ikon:


Pogoji uporabe.    

besedilo z akordi besedilo z akordi
tablature tablatura (tabulatura)
tablature tablatura za bas
tablature videolekcija

GuitarPro GutarPro (GP)
note Note (v PDF formatu)
sibelius Sibelius (SIB), itd.
..

Iztok Mlakar - En glaž vina mi dej
======================================
Album: Štorje in baldorje
======================================
akorde in intro je spisal neznan avtor
Tabe za dve kitari je dodal mondxxi
======================================


Intro z eno kitaro:


E|-----0-3-3-3-0-------0-3-3-3-0---| 
H|---0-----------0---------------0-| 
G|-------------------2-------------| 
D|---------------------------------| 2x 
A|-3---------------3---------------| 
E|---------------------------------|

Intro in vzorec brenkanja z dvema kitarama:
Prva kitara igra uvod s kapodastrom na tretjem polju takole:

E|-----------------3---------------|-----------------3---------------|-----------------3---------------|
H|-------------8-------8-----------|-------------8-------8-----------|-------------8-------8-----------|
G|---------9---------------9-------|---------9---------------9-------|---------9---------------9-------|
D|-----9-----------------------9---|-----7-----------------------7---|-----9-----------------------9---|
A|-3-------------------------------|-3-------------------------------|-3-------------------------------|
E|---------------------------------|---------------------------------|---------------------------------|

E|-----------------3---------------|
H|-------------8-------8-----------|
G|---------9---------------9-------|
D|-----7-----------------------7---|
A|-3-------------------------------|
E|---------------------------------|



Druga kitara brez kapodastra takole:

En glaž vina mi...
..Dej                                       Prej ku oct      z njeha  rataaaaaaaaaa
  C                                  C                                Dm                      Dm/maj7
E|-------------0---------------0---|-------------0---------------0---|-------------1-----------1-------|
B|---------1-------1-------1-------|---------1-------1-------1-------|---------3-------3-----------2---|
G|-----0---------------0-----------|-----0---------------0-----------|-----2---------------2-----------|
D|---------------------------------|-2-------------------------------|-0-------------------------------|
A|-3-------------------------------|---------------------------------|---------------------------------|
E|---------------------------------|---------------------------------|---------------------------------|


          Dej nu mlčk      se  na   smej    kelnrca        mo  ja     zla   ta    ncuj sm led ik  nu    frej
  Dm                                 G                                 G                                 C
E|-------------1---------------1---|-------------3---------------3---|-------------3---------------3---|
B|---------3-------3-------3-------|---------0-------0-------0-------|---------0-------0-------0-------|
G|-----2---------------2-----------|-----0---------------0-----------|-----0---------------0-----------|
D|-0-------------------------------|---------------------------------|---------------------------------|
A|---------------------------------|---------------------------------|-2-------------------------------|
E|---------------------------------|-3-------------------------------|---------------------------------|

 


C                                          Dm
En glaž vina mi dej, prej ku voct z njega rata  
                    G                      G7                        C
dej nu malčk se nasmej,  
kelnerca mu je zlata, ancuj sem ledih nu frej,                   


C                                          Dm
jaz spet ustu sem sam,    kadar štorja konča se 
                  G                        G7                      C  C7
ni ljepu sej priznam   ma treba je miselt nase,  ni kar tku se ne da
  
          F                       C
Ma huodi huodi, si že najdeš kej bolšga  
                  G                       G7                     C    C7
svjet se nebo podrov od tega nevem če ni hujšga
ni nobeden še umrov

          F         Fm                        C    A7
Ma huodi huodi      ...  an boh stoj ti ob strani
                    Dm                   G                          C
preveč rad sem te imel, da bi ti reku ostani,
ma da bi vsaj jokat znal 


Mrak se nardu je že ncoj so zvjezde res krasne  
muoj ti buh ma jih je an če kera ugasne kuos neba z njo umre


an numalčk manj luči je ostalo za tabo  
ma ncoj pije se mi, ncoj vina bi rabu, da bi mi svjetlo  v temi  


ma huodi, huodi si že najdeš kej bolšga  
svjet se nebo podrov od tega nevem če ni hujšga ni nobeden še umrov  


ma huodi, huodi an boh stoj ti obstrani
preveč rad sem te imel, da bi ti reku ostani ma da bi vsaj jokat znal
preveč rad sem te imel, da bi ti reku ostani ma da bi vsaj jokat znal  


lalalalala, lalalalala,  
preveč rad sem te imel, da bi ti reku ostani ma da bi vsaj jokat znal


trzalica bartrzalica barDobre vile debatirajo o teh akordih na Forumutrzalica bar

Komentarji   

0 #1 Andrej 08:19 28-08-2015
Bi lahko mogoče napisali, kakšen je vzorec za igranje s prsti? Hvala :)
Citat | Poročilo administratorju

Dodaj komentar


Varnostna koda
Osveži

  Iskanje

config