tablatura akordi besedilo   Večer pred Rudekovo gorco (tab)

trzalica.com besedilo akordi tablature

Legenda ikon:


Pogoji uporabe.    

besedilo z akordi besedilo z akordi
tablature tablatura (tabulatura)
tablature tablatura za bas
tablature videolekcija

GuitarPro GutarPro (GP)
note Note (v PDF formatu)
sibelius Sibelius (SIB), itd.
..

 
 Izvajalec: ................... Mi2
 Skladba: ..................... Večer pred Rudekovo Gorco
 Album: ....................... Dobrodošli na dvor
 Leto izida: .................. 2006    
 Transkripcijo izdelal ........ sallamon & NoMAD / 2006          
 Tablaturo dodal .............. AliAs / 2015  
 Domača stran transkripcije ... Trzalica.com
================================================================================
 D         x x 0 2 3 2
 D7        x x 0 2 1 2
 G         3 5 5 4 3 3  ali  3 2 0 0 3 3
 Gm        3 5 5 3 3 3  ali  3 1 0 0 3 3
 Hm        2 2 4 4 3 2
 A         x 0 2 2 2 0
 Asus4     x 0 2 2 3 0
 Dmaj7     x x 0 2 2 2
================================================================================
 
e|------------------------------------------------------------------------|
H|-3/-7---10----10-10--8----------7----10----10/-15---14--15^--15--15^ˇ---|
G|------------------------7\-3--------------------------------------------|
D|------------------------------------------------------------------------|
A|------------------------------------------------------------------------|
E|------------------------------------------------------------------------|
 
 
 D D7 G Gm
 D D7 G Gm
 D
 
 Pod večer, ko nebo pordi 
        Hm
 in se sapa pred menoj zgosti,
        D
 ko pod noge priplazi se hlad,
        Hm
 da mi vtrpne moj zmatrani vrat.
        G
 Stopim z litrom do klopce pred klet,
        Gm
 vsrkat sladke ranine šepet, 
        D
 brez besed...
 
 Breg za bregom počasi temni,
 s teme vstajajo prve luči.
 ko kresnice se vžigajo v noč
 v dalji nemo migetajoč.
 Pod lučmi 2 miljona ljudi
 čaka ure, da z njo odleti, 
 zamiži...
 
 Odhaja še en dan,
 en več, al eden manj.
 Preveč sem jih preštel,
 da bi jih bil še vesel
 Preveč zaupal v njih,
 pa s cajtom ratali so, 
         D
 čisto glih...
         Asus4    A 
 čisto glih...
 
   D
 Bežijo mimo nas, 
   Hm
 s svinčenimi očmi,
    D
 nič več jih ne spoznam,
    Hm
 nič več jim ne sledim.
    G
 Z vsakim dnem bolj sam
    Gm
 z vsakim dnem 'no majčkeno 
     D
 bolj hin
        Asus4    A 
 ........
 
 
e|------------------------------------------------------------------------|
H|-3/-7---10----10-10--8----------7----10----10/-15---15-15-17--17^ˇ-15---|
G|------------------------7\-3--------------------------------------------|
D|------------------------------------------------------------------------|
A|------------------------------------------------------------------------|
E|------------------------------------------------------------------------|
 
 D D7 G Gm
 D D7 G Gm
 D
 
 Zmer pogosteje takle sedim,
 gledam v temo, študiram, kadim,
 kam izginjajo dobre stvari,
 kak je zmer'manj spodobnih ljudi.
 Ko še znajo zavit gor pred klet
 spit dva deci, se malo pogret, 
 posedet...
 
 Preveč se jim mudi
 za drugimi skrbmi.
 Zastopit, dohitet
 ta krasni novi svet.
 Še čimbolj fajn prodat,
 pozabit sanje in 
           D
 upogn't vrat 
        Asus4    A 
 ........
 
 Bežijo mimo nas, 
 s svinčenimi ocmi,
 nič več jih ne spoznam,
 nič več jim ne sledim.
 Z vsakim dnem bolj sam
 z vsakim dnem 'no majčkeno 
       D
 bolj hin, 
       Asus4    A 
 bolj hin...
       D       D7   G   Gm   Dmaj7
 bolj hin...   ...............
 
e|---------------------------------2-----|
H|-7---10----10-10--8--------------2-----|
G|---------------------7\-3---3h5--2-----|
D|---------------------------------0-----|
A|---------------------------------------|
E|---------------------------------------|
 
 
 

trzalica bar

trzalica bar

Dodaj komentar


Varnostna koda
Osveži

  Iskanje

config