tablatura akordi besedilo   Ves tvoj svet (tab)

trzalica.com besedilo akordi tablature

Legenda ikon:


Pogoji uporabe.    

besedilo z akordi besedilo z akordi
tablature tablatura (tabulatura)
tablature tablatura za bas
tablature videolekcija

GuitarPro GutarPro (GP)
note Note (v PDF formatu)
sibelius Sibelius (SIB), itd.
..

 Izvajalec: ..................... Omar Naber
 Skladba: ....................... Ves tvoj svet
 Transkripcijo izdelal .......... odem81
 Vrsta transkripcije ............ tabulature + besedilo + solo 
 Domača stran transkripcije ..... www.trzalica.com


===============================================================================


-------------------------------------------------------------------------------
     Ves tvoj svet - Omar Naber
-------------------------------------------------------------------------------
Tabbed by: odem81


Tuning:Standard

e|-----------------------------------------------------------------------|
B|-----------------------------------------------------------------------|
G|-----------------------------------------------------------------------|
D|------------6-----------7-------------6-----------7--------------------|
A|------------6-----------7-------------6-----------7--------------------|
E|------------4-----------5-------------4-----------5--------------------|
Zdaj vem, da vse kar je bilo bil je le beg, bil je odsev, pogled zadet...  
    Morda je prav,da te ni več, morda je prav...

e|----------------------------------------------------------------------------------------------------|
B|----------------------------------------------------------------------------------------------------|
G|----------------------------------------------------------------------------88888888888888888888888-|
D|--xxxx444444422222222222224444444444422222222222224444444444444444444444444488888888888888888888888-|
A|--xxxx444444422222222222224444444444422222222222224444444444444444444444444466666666666666666666666-|
E|--xxxx2222222000000000000022222222222000000000000022222222222222222222222222------------------------|
da pokazala si odsev,in zadušila moj odmev in da si trgala mi smeh iz ust, ko tonil sem v obup.Rad bi 

e|-----------------------------------------------------------------------------------------------|
B|--------------------------------------------------------------{moj dah}v drugo zaključiš s tem-|
G|---------------------------------------------------------------666666666666666-----------------|
D|-6666666666666666666666666664444444444444444222222222222-------666666666666666-----------------|
A|-6666666666666666666666666664444444444444444222222222222-------444444444444444-----------------|
E|-4444444444444444444444444442222222222222222000000000000---------------------------------------|
   gledal skoz oči v katerih  ves tvoj svet leži,In rad bi 
dihal ves tvoj zrak ki jemlje|sapo in                           {moj dah.Kaj naj}
jaz brez svojih sanj kako na |ubijem tisti    dan 

e|-------------------------------------------------------|
B|-------------------------------------------------------|
G|-----------------------------------------6666666668888-|
D|-22222266666666666666666666664444444444446666666668888-|
A|-22222266666666666666666666664444444444444444444446666-|
E|-0000004444444444444444444444222222222222--------------|
   Je morda ostala senca nad menoj ko mi roke okamene... 

e|--------------------------------------------------------------------|
B|--------------------------------------------------------------------|
G|--------------------------------------------------------------------|
D|----------6-----------7-------------6--------------7----------------|
A|----------6-----------7-------------6--------------7----------------|
E|----------4-----------5-------------4--------------5----------------|
Zdaj le molčim pobit v tla, to ni dovolj,za svet ki pravi da sem nor 
    ampak vsi   slepih oči     bodo jokal 

e|---------------------------------------------------------------------------------------------------------------------|
B|---------------------------------------------------------------------------------------------------------------------|
G|---------------------------------------------------------------------------------------------88888888888888888888888-|
D|---x-x-x-x4444444444442222222222222222444444444442222222222222244444444444444444444444444444488888888888888888888888-|
A|---x-x-x-x4444444444442222222222222222444444444442222222222222244444444444444444444444444444466666666666666666666666-|
E|-- x-x-x-x22222222222200000000000000002222222222200000000000000222222222222222222222222222222------------------------|
ko s strahom bitko bodo klal,in z begom sebe vrgli stran ko bodo tebe v njem spoznal, bodo kot jaz mižal kričal.Rad bi 
  
e|-----------------------------------------------------------------------------------------------|
B|--------------------------------------------------------------{moj dah}v drugo zaključiš s tem-|
G|---------------------------------------------------------------666666666666666-----------------|
D|-6666666666666666666666666664444444444444444222222222222-------666666666666666-----------------|
A|-6666666666666666666666666664444444444444444222222222222-------444444444444444-----------------|
E|-4444444444444444444444444442222222222222222000000000000---------------------------------------|
   gledal skoz oči v katerih  ves tvoj svet leži,In rad bi 
dihal ves tvoj zrak ki jemlje|sapo in                           {moj dah.Kaj naj}
jaz brez svojih sanj kako na |ubijem tisti    dan 

e|--------------------------------------------------------------|
B|--------------------------------------------------------------|
G|-----------------------------------------6666666668888--------|
D|-22222266666666666666666666664444444444446666666668888--------|
A|-22222266666666666666666666664444444444444444444446666--------|
E|-0000004444444444444444444444222222222222---------------------|
   Je morda ostala senca nad menoj ko mi roke okamene... 

(prehod-piščalka)
e|-9-11-12-11-9-11-9----9---------------------------------------|
B|-------------------12---12-11-12-11-9-11-9--------------------|
G|-------------------------------------------11-9-8-------------|
D|--------------------------------------------------------------|
A|--------------------------------------------------------------|
E|--------------------------------------------------------------|

(akordi med solom)
e|--------------------------------------------------------------|
B|--------------------------------------------------------------|
G|----------------------------------------------- --------------|
D|-6-66-6-6-6-66-6-6-6-6-4-44-4-4-2-22-2-2-2-2------------------|
A|-6-66-6-6-6-66-6-6-6-6-4-44-4-4-2-22-2-2-2-2------------------|
E|-4-44-4-4-4-44-4-4-4-4-2-22-2-2-0-00-0-0-0-0------------------|
     pp   p   pp   p   p   pp   p   pp   p   p

(solo)
e|------7/11-9-------------7/11-14-14/16-13---7---9---7---9---7-|
B|-9-12-----------9---9-12------------------9---9---9---9---9---|
G|-------------11-----------------------------------------------|
D|--------------------------------------------------------------|
A|--------------------------------------------------------------|
E|--------------------------------------------------------------|

e|-19-18--------------------------------------------------------|
B|-------19-----------------------------------------------------|
G|----------18-16-15--------------------------------------------|
D|-------------------16-----------------------------------------|
A|----------------------16-14-13--------------------------------|
E|-------------------------------14-----------------------------|

e|--------------------------------------------------------------|
B|--------------------------------------------------------------|
G|-18b20---18b20b18-16----16----18----16----18----16------------|
D|---------------------18----18----18----18----18----18-13------|
A|--------------------------------------------------------------|
E|--------------------------------------------------------------|

e|-----------------------------------------------------------------------|
B|-----------------------------------------------------------------------|
G|-----------------------------------------------------------------------|
D|------------6-----------2-------------6-----------8--------------------|
A|------------6-----------2-------------6-----------8--------------------|
E|------------4-----------0-------------4-----------6--------------------|
Zdaj vem, da vse kar je bilo bil je le beg, bil je odsev, pogled zadet...  
    Morda je prav,da te ni več, morda je prav...

e|---------------------------------------------------------------------------------------------|
B|---------------------------------------------------------------------------------------------|
G|------------------------------------------------------------66666666666666888888888888888888-|
D|--xxxx44444442222222222222444444444442222222222222444444444466666666666666888888888888888888-|
A|--xxxx44444442222222222222444444444442222222222222444444444444444444444444666666666666666666-|
E|--xxxx222222200000000000002222222222200000000000002222222222---------------------------------|
da pokazala si odsev,in zadušila moj odmev in da si trgala mi smeh in da si trgala srce.Rad bi 
                                                     pp pp p p pp pp p p pp 

e|-----------------------------------------------------------------------------------------------|
B|--------------------------------------------------------------{moj dah}v drugo zaključiš s tem-|
G|---------------------------------------------------------------666666666666666-----------------|
D|-6666666666666666666666666664444444444444444222222222222-------666666666666666-----------------|
A|-6666666666666666666666666664444444444444444222222222222-------444444444444444-----------------|
E|-4444444444444444444444444442222222222222222000000000000---------------------------------------|
   gledal skoz oči v katerih  ves tvoj svet leži,In rad bi 
dihal ves tvoj zrak ki jemlje|sapo in                           {moj dah.Kaj naj}
jaz brez svojih sanj kako na |ubijem tisti    dan 

e|--------------------------------------------------------------|
B|--------------------------------------------------------------|
G|-----------------------------------------6666666668888--------|
D|-22222266666666666666666666664444444444446666666668888--------|
A|-22222266666666666666666666664444444444444444444446666--------|
E|-0000004444444444444444444444222222222222---------------------|
   Je morda ostala senca nad menoj ko mi roke okamene... 

e|--------------------------------------------------------------|
B|--------------------------------------------------------------|
G|------------------6-------------------------------------------|
D|--------2---------6-------6-----------------------------------|
A|--------2---------4-------6-----------------------------------|
E|--------0-----------------4-----------------------------------|   
   Ko mi res tele roke okamene

| /  slide up
| p  palm mute
| b  bend
===============================================================================


#==============================================================================#
#                                                                              #
#                    w w w . t r z a l i c a . c o m                           #
#               K j e r   i m a m o   r a d i   g l a s b o                    #
#                                                                              #
#==============================================================================#

trzalica bartrzalica bar

Dodaj komentar


Varnostna koda
Osveži

  Iskanje

config