tablatura akordi besedilo   Totalna revolucija (tab)

trzalica.com besedilo akordi tablature

Legenda ikon:


Pogoji uporabe.    

besedilo z akordi besedilo z akordi
tablature tablatura (tabulatura)
tablature tablatura za bas
tablature videolekcija

GuitarPro GutarPro (GP)
note Note (v PDF formatu)
sibelius Sibelius (SIB), itd.
..

Vse verzije te pesmi:    besedilo z akordi  Totalna revolucija       Totalna revolucija (tab)

trzalica bar

Totalne revolucije-Pankrti
(solo)
Besedilo-Pero Lovšin
Solo-sakic23
E-------------------------------------------------------------------------------------------
B-------------------------------------------------------------------------------------------
G------------4-----4------------------------------------------2-2---------------------------
D-----------------------------------------3-3-----------------------------------------------
A-4-4---3-3----6--5--5---4-4---3-3---4-4-------5-4---4-4--5-5------3-3--4-4--5-5----6-6--4--
E-------------------------------------------------------------------------------------------
 Janez noče it v službo, Janez hoče bit  doma, Janez hoče pit več čaja,Janez kurvin sin zakva?

-----------------------------------------------------------------------
-----------------------------------------------------------------------
------------------------------------------------------4-4--------------
--------------3--------------------------------------------------------
-3-5-5---5-3-3-----5--3-5---4--4-4-4---5-5--5-4-------------5-4-4-5-4-5
-----------------------------------------------------------------------
Totalna revolucija,za njega ni rešitve, Janez kurbin, hoče samopoterditev.

Opomba:Solo je enaki v naslednjih kiticah.
trzalica bartrzalica bar

Dodaj komentar


Varnostna koda
Osveži

  Iskanje

config