tablatura akordi besedilo   Za železno zaveso (tab)

trzalica.com besedilo akordi tablature

Legenda ikon:


Pogoji uporabe.    

besedilo z akordi besedilo z akordi
tablature tablatura (tabulatura)
tablature tablatura za bas
tablature videolekcija

GuitarPro GutarPro (GP)
note Note (v PDF formatu)
sibelius Sibelius (SIB), itd.
..

 

Izvodjac: Pankrti
Pesma: Za Zelezno Zaveso
Transkripcija: Sat-Ok, Ta e-poštni naslov je zaščiten proti smetenju. Potrebujete Javascript za pogled.



Uvodni lick

e|------------|
B|------------|
G|------------|
D|------------| 4x
A|-5v--4v-----|
E|--------3v--|


   A              C#m7       F#m             A
Za zelezno zaveso stare babe puljo rdeco peso
E  A              C#m7       F#m             A
Za zelezno zaveso stare babe puljo rdeco peso
E  A              C#m7       F#m             A  H
Za zelezno zaveso stare babe puljo rdeco peso


F#m            Hm7
Mrak pada na zelezno zaveso,
   F#m                  Hm7
Za frustek za kusiu, za vecerjo pesa.
   F#m         Hm7
Do neba sega zelezna zavesa

 A            C#m7        F#m            D
Utaplamo se u rdeci pesi, krpamo lukne u zelezni zavesi - 3x


Solo /F#m Hm7/F#m Hm7/F#m Hm7/

     /A  C#m7/F#m  D/ - 2x


F#m              Hm7
Drek se dela iz rdece pese,
F#m           Hm7
Strgamo rjo zelezne zavese.
  F#m               Hm7
U mraku se skriva zelezna zavesa


   A              E             D
Se mrtvi konji ne morjo vec u nebesa - 4x

   A             C#m7    F#m           D
Za zelezno zaveso,    za zelezno zaveso

   A                 E             D
Za zelezno zaveso ne morjo vec u nebesa - 4x

   A             C#m7    F#m           D  A
Za zelezno zaveso,    za zelezno zaveso





Melodija - Generalni Prikaz (Moguce su varijacije)


        A            C#m7       F#m                A  E
e|---------------------------------------------------------|
B|---------------------------------------------------------|
G|------2-2---2-2-2--1--1--1-1------------------------2----|
D|-2--2-------------------------4-4---4-4-2--4-4-4---------|
A|---------------------------------------------------------|
E|---------------------------------------------------------|
   Za zelezno zaveso stare babe puljo r-deco p-e-so   Za...


   F#m            Hm7
e|-------------------------------|
B|-------------------------------|
G|-------------------------------| 3x
D|-4----4-4--4----2-0---0-0-0----|
A|--------------4----------------|
E|-------------------------------|
   Mrak pada na zelezno zaveso...


    A              C#m7         F#m            D
e|--------------------------------------------------------------|
B|--------------------------------------------------------------|
G|-2-2-2---2--2--2-1-1-1--1-1-----------------------------------| 3x
D|------------------------------4-4-2--4-4---x-x-------x--------|
A|--------------------------------------------------------------|
E|--------------------------------------------------------------|
   U-tapljamo se u r-deci pesi, krpamo lukne u zelezni zavesi..


      A              E             D
e|----------------------------------------|
B|----------------------------------------|
G|-2--2-2---2-2---2--1-1---1--------------|
D|-----------------------------2-2-4-0----|
A|----------------------------------------|
E|----------------------------------------|
   Se mrtvi konji ne morjo vec u nebesa...


      A             C#m7    F#m           D  A
e|---------------------------------------------|
B|---------------------------------------------|
G|-2--2-2-2---2-2-2------2--2-2-2---2-2-2------|
D|---------------------------------------------|
A|---------------------------------------------|
E|---------------------------------------------|
   Za zelezno zaveso,    za zelezno zaveso
trzalica bartrzalica bar

Dodaj komentar


Varnostna koda
Osveži

  Iskanje

config