tablatura akordi besedilo   ... (Tri pike) (tab)

trzalica.com besedilo akordi tablature

Legenda ikon:


Pogoji uporabe.    

besedilo z akordi besedilo z akordi
tablature tablatura (tabulatura)
tablature tablatura za bas
tablature videolekcija

GuitarPro GutarPro (GP)
note Note (v PDF formatu)
sibelius Sibelius (SIB), itd.
..

 
   ___________________________________________________________
  |  _______________________________________________________  |
  | |                                                       | |
  | | IZVAJALEC: .............. Siddharta                   | |
  | | PESEM: .................. ... (Tri pike)              | |
  | | ALBUM: .................. ID                          | |
  | | LETO IZIDA: ............. 1999                        | |
  | | DOMAČA STRAN: ........... www.siddharta.net           | |
  | |_______________________________________________________| |
  | |                                                       | |
  | |           Avtor transkripcije: AliAs                  | |
  | |    Domača stran transkripcije: Trzalica.com           | |
  | |  Datum nastanka transkripcije: 22.12.2007             | |
  | |_______________________________________________________| |
  |___________________________________________________________|
 
================================================================================================
 
LEGENDA ZNAKOV:
p = pull off
h = hammer on
/ = slide up
\ = slide down
b = bend up za 1/2 tona
 
PRIJEMI AKORDOV:
         -verz-          -refren-
A   - X 0 2 2 2 0       5 7 7 X X X
Bm  - X 2 4 4 3 2       X 2 4 4 X X
C   - x 3 2 0 1 0       -----------
C#m - X 4 6 6 5 4       X 4 6 6 X X
D   - X 0 0 3 2 3      (5)5 7 7 X X
E   - 0 2 2 1 0 0       X 7 9 9 X X
F#m - 2 4 4 2 2 2       2 4 4 X X X
G   - 3 2 0 0 0 3       3 5 5 X X X
 
================================================================================================
www.trzalica.com    www.trzalica.com    www.trzalica.com    www.trzalica.com    www.trzalica.com
================================================================================================
 
VERZ 1:
 
        D  A  G  Bm  A
 
           D                   A         
It took a moment to make this little boy breath,
          G                                   Bm                          A
it was a moment when this little girl took a book trying to learn how to read.
     D                       A
He started to feel the first innocence love
          G                           Bm                          A
and many barriers she climbed on the way finding out what's all about.
D                         A
Living her life near the see, 
               G                    Bm                    F#m                   Bm   F#m   G   A
rising up the day still there was thousands of miles in between (not that they knew). 
 
D                          A
Somehow the song met the soul in the night, 
           G                        Bm                       A
it took a moment to make those four eyes making thoughts go wild. 
                     D                      A
Then digging in the sand and listening the band, 
                      G           Bm                    A
not alone but with friends, old friends they saw them spinning. 
 
 
Prehod v refren:
 
          D                    A
And then taking him up on the hill 
                    G             Bm                     F#m      
now alone with the lights down beneath in a small small town, 
             G                   A
whole life on short in words until that day 
 
 
REFREN 1:
 
          D               A                           G
When the Nature took him out, it took her out and put away, 
 Bm                                A
right there out from the sand and water blue. 
 Bm  C#m    D            A                         G
Saw them screaming out laud but the voice you couldn't hear,
     Bm                        F#m     Bm   F#m   G   F#m   A
but they were the only ones who felt it. 
 
 
VERZ 2:
 
                D                   A                       G
Those were the days that made them see what they wanted to see, 
                          Bm     A
feel what they wanted to feel, 
                 D                 A                    G
And what was to be said when they saw the man walking away 
                            Bm          
and saw the girl standing there... 
 
 
REFREN 2:
 
F#m       G      D         A
why that moment made them the...
          D                A                          G
When the Nature took him out, it took her out and put away, 
 Bm                                A
right there out from the sand and water blue. 
 Bm  C#m    D            A                         G
Saw them screaming out laud but the voice you couldn't hear,
     Bm                        F#m     Bm   F#m   G   F#m   E
but they were the only ones who felt it. 
 
 
SOLO:
(začne se na zadnji akord refrena > E)
 
   E
e|-----------------------------|
B|-----------------------------|
G|-9----6--7--9---6------------|
D|-9----7--9--11--7--6-6--7--6-|
A|-7---------------------------|
E|-0---------------------------|
 
   A                   C#m                  D            C       Bm
e|----------------------------------------------------------------------|
B|-------------------------9--7-9---10---9-10---------------------------|
G|----------------9--7-9------------------------7-\---------2--0--------|
D|-7---11--9-11--------------------------------------2-4-5-------4------|
A|------------------------------------------------------------------0-5-|
E|----------------------------------------------------------------------|
 
   A                    C#m                    D                   C              Bm
e|----------------------------------------------------------------------------------------------------|
B|-----------10-9-7-9-7-------7-9-10p9-7h9-7---7------------------------------------------------------|
G|----9--9-9------------9---9----------------9---7-6--------------------------------------------------|
D|---------------------------------------------------9-7-------7-9-10-9-7-10-9-10-12-10-9-10/12-12-12-|
A|-7-----------------------------------------------------9---9----------------------------------------|
E|----------------------------------------------------------------------------------------------------|
 
   A                          C#m                                    D
e|--------------------------------------------------------------------------------------------------
B|----------------------------------------14----15----14--------------------------------------------
G|----13b-13------------------14-13-16-13----13----13----13-14/16-14-11-13h14p13-11-14-13-11--------
D|-14---------15-14---15--14------------------------------------------------------------------12-12-
A|--------------------------------------------------------------------------------------------------
E|--------------------------------------------------------------------------------------------------
 
 C              Bm
------------------------------|
-------------12-12/15-12------|
------9--12-------------------|
-11-9---------------------12--|
------------------------------|
------------------------------|
 
   A                            C#m                           D
e|-------------------------------------------------------------------------------------------
B|---------------------------------------------------------------17--------15-------17-------
G|--------------------------------------13h14p13-11-13-14-13-14-----14--14----14-14----14-14-
D|-11----11h12p11p9h11h12p11-12/14---14------------------------------------------------------
A|-------------------------------------------------------------------------------------------
E|-------------------------------------------------------------------------------------------
 
 C                 Bm
-------------------------------------|
-15-------17-------15-------17-------|
----14-14----14-14----14-14----14-14-|
-------------------------------------|
-------------------------------------|
-------------------------------------|
 
VERZ 3:
 
   A                                   C#m                               D                                
e|-------------------------------------------------------12--------------------------------12-------------
B|-17----15----14----17----15----14-------14----14----14----14----14--------10----10----10----10----10----
G|----14----14----14----14----14----14-13----13----13----------13----13--11----11----11----------11----11-
D|--------------------------------------------------------------------------------------------------------
A|--------------------------------------------------------------------------------------------------------
E|--------------------------------------------------------------------------------------------------------
 
 C               Bm
-------------10--------------10---|
---8---8---8-------7---7---7------|
-9---9---9-------7---7---7--------|
----------------------------------|
----------------------------------|
----------------------------------|
 
   A                                 C#m                               D                                
e|-------------------12--------------------------------12--------------------------------12-------------
B|----14----14----14----14----14--------14----14----14----14----14--------10----10----10----10----10----
G|-14----14----14----------14----14--13----13----13----------13----13--11----11----11----------11----11-
D|------------------------------------------------------------------------------------------------------
A|------------------------------------------------------------------------------------------------------
E|------------------------------------------------------------------------------------------------------
 
 C               Bm
-------------10--------------10---|
---8---8---8-------7---7---7------|
-9---9---9-------7---7---7--------|  > se ponavlja do konca pesmi
----------------------------------|
----------------------------------|
----------------------------------|
 
A                                C#m                             D
And there was a time when paper-dates were on the wall and calendars fell off. 
  C                  Bm
They were too old, they were too old. 
A                             C#m
And so he went once just to spend some time on hi s own, 
            D                       C                      Bm
he went up north for a day or two, walking the streets of foreign town, 
      A                             C#m                                  D
just walking, And than he said: "Excuse me, do you know where I can get something to eat?"
                    C               Bm       A
and she said: "I'm sorry, but I am not from here," 
                              C#m                        D   C  Bm
And then she turned around to see who she's talking to and...
          A                            C#m
It was a moment that made them cry, a moment that made them laugh, 
   D                         C     Bm          A
a moment that brought them back together for good...
          C#m            D   C  Bm
yeah for good, yeah for good... 
 
        A   C#m   D   C  Bm   > 5x
 

trzalica posnetek bar

trzalica bar
 

Dodaj komentar


Varnostna koda
Osveži

  Iskanje

config