tablatura akordi besedilo   01 (nulaena) (tab)

trzalica.com besedilo akordi tablature

Legenda ikon:


Pogoji uporabe.    

besedilo z akordi besedilo z akordi
tablature tablatura (tabulatura)
tablature tablatura za bas
tablature videolekcija

GuitarPro GutarPro (GP)
note Note (v PDF formatu)
sibelius Sibelius (SIB), itd.
..

Vse verzije te pesmi:      01 (nulaena) (tab)       01 (nulaena) (bas)

trzalica bar

 
 _______________________________________
|                                       |
| IZVAJALEC: ................ Siddharta |
| PESEM: ................. 01 (nulaena) |
| ALBUM: ......................... Nord |
|_______________________________________|
|                                       |
|   Transkripcija: AliAs                |
|   Domača stran: Trzalica.com          |
|_______________________________________|
 
================================================================================================
 
V tej pesmi je v verzih uporabljen nekakšen volume efekt (tremolo, vibe,...), morda tudi delay.
Tabulaturo sem napisal tako, da lahko pesem igram brez tega efekta (enako velja za pesem Outro).
 
LEGENDA:
M = MUTE
~ = let ring
 
Prijemi akordov:
A  - X 0 2 2 2 0
Bm - X 2 4 4 3 2
D  - X 0 0 2 3 2
Em - 0 2 2 0 0 0
G  - 3 2 0 0 0 3
 
================================================================================================
www.trzalica.com    www.trzalica.com    www.trzalica.com    www.trzalica.com    www.trzalica.com
================================================================================================
 
INTRO & VERZ 1:  (00:00 - 01:18)
 
   Bm            D             Em          G       A
e|---------------------------------------------------------|
B|---------------------------------------------------------|
G|---------------------------------------------------------|
D|-----4-4-5-5-4-4-0-0---0-5-4-4-0-0-----------------------|
A|-2-2-------------------------------2-2-------2---0-0-5-5-|
E|-----------------------------------------3-3---3---------|
 
   Bm              D              Em          G       A
e|--------------------------------------------------------------|
B|--------------------------------------------------------------|
G|---------------4-4------------4-4-----------------------------|
D|-------4-4-5-5-----5-5-4-4--5-----4-4-2-2---------------------|
A|-2-2-2------------------------------------------2---0-0-5-5-2-|
E|--------------------------------------------3-3---3-----------|
 
   Bm            D             Em          G       A
e|---------------------------------------------------------|
B|---------------------------------------------------------|
G|---------------------------------------------------------|
D|-----4-4-5-5-4-4-0-0---0-5-4-4-0-0-----------------------|
A|-2-2-------------------------------2-2-------2---0-0-5-5-|
E|-----------------------------------------3-3---3---------|
 
   Bm              D              Em          G       A       Bm
e|--------------------------------------------------------------------|
B|--------------------------------------------------------------------|
G|---------------4-4------------4-4-----------------------------------|
D|-------4-4-5-5-----5-5-4-4--5-----4-4-2-2-----------------------4-4-|
A|-2-2-2------------------------------------------2---0-0-5-5-2-2-----|
E|--------------------------------------------3-3---3-----------------|
 
Bm                    D                    Em      G  A
Vem da je prav vse lepo in da jutri bo le bolje.
e|-------------------------|
B|-------------------------|
G|-------------------------|
D|---------------------4-4-|
A|-----2---0-0-5-5-2-2-----|
E|-3-3---3-----------------|
 
Bm                  D                       Em      G  A  Bm
Drevje v raju zacveti, na nas posije toplo sonce.
e|-------------------------------|
B|-------------------------------|
G|-------------------------------|
D|---------------------------4-4-|
A|-----2---0-0-5-5-2--M--2-2-----|
E|-3-3---3-----------------------|
 
Bm                      D                      Em      G  A
Brez strahu gre človek tja v temno klet ali vesolje.
e|-------------------------|
B|-------------------------|
G|-------------------------|
D|---------------------4-4-|
A|-----2---0-0-5-5-2-2-----|
E|-3-3---3-----------------|
 
Bm                   D                        Em      G  A
In je tako kot mora bit, vse zaključi se pri smrti.
e|-----------------|
B|-----------------|
G|-----------------|
D|-----------------|
A|-----2---0-0-5-5-|
E|-3-3---3---------|
 
 
REFREN 1:  (01:19 - 02:16)
 
Kaj ko pride dan, ko nam lažejo tisoči, lažejo prav vsi.
e|----------------------------------------------------------------------|
B|----------------------------------------------------------------------|
G|-----------------7--4-4--------7--4-4---------7--4-4--------7---------|
D|-----------------7--4-4--5--2--7--4-4---------7--4-4--5--2--7----7----|
A|---------2-------5--2-2--5--2--5--2-2--5-6-7--5--2-2--5--2--5----7----|
E|-2-3-2-0---3-2-3---------3--0-------------------------3--0-------5----|
                       M             M        M     M
 
In se zgodi da davijo ljubljene, davijo prav vse.
e|-----------------------------------------------|
B|-----------------------------------------------|
G|-7--4-4--------7--4-4---------7--4-4--------7~~|
D|-7--4-4--5--2--7--4-4---------7--4-4--5--2--7~~|
A|-5--2-2--5--2--5--2-2--5-6-7--5--2-2--5--2--5~~|
E|---------3--0-------------------------3--0-----|
       M             M        M     M
 
e|---------------------------------------------------------------|
B|---------------------------------------------------------------|
G|~~----------------------------------------7~~~~----------------|
D|~~------------------------7~~~~------2~~~~7~~~~------7~~~~~~~~-|
A|~~5-7-5-7~~~~7-5~~~~5-7-5-7~~~~------2~~~~5~~~~5-7-5-7~~~~~~~~-|
E|--------------------------5~~~~5-7-5-0~~~~-----------5~~~5-5-5-|
 
Kaj ko pride dan, ko nam kradejo angeli, kradejo brez vesti.
e|----------------------------------------------------------------------|
B|----------------------------------------------------------------------|
G|-----------------7--4-4--------7--4-4---------7--4-4--------7---------|
D|-----------------7--4-4--5--2--7--4-4---------7--4-4--5--2--7----7----|
A|---------2-------5--2-2--5--2--5--2-2--5-6-7--5--2-2--5--2--5----7----|
E|-2-3-2-0---3-2-3---------3--0-------------------------3--0-------5----|
                       M             M        M     M
 
In se zgodi, da kronajo s sabljami, kronajo do kosti.
e|------------------------------------------------------------|
B|------------------------------------------------------------|
G|-7--4-4--------7--4-4---------7--4-4------------------------|
D|-7--4-4--5--2--7--4-4---------7--4-4--5--2------------------|
A|-5--2-2--5--2--5--2-2--5-6-7--5--2-2--5--2----------2-------|
E|---------3--0-------------------------3--0--2-3-2-0---3-2-3-|
       M             M        M     M
 
 
VERZ 2:  (02:17 - 02:45)
 
   Bm            D             Em          G       A
e|---------------------------------------------------------|
B|---------------------------------------------------------|
G|---------------------------------------------------------|
D|-----4-4-5-5-4-4-0-0---0-5-4-4-0-0-----------------------|
A|-2-2-------------------------------2-2-------2---0-0-5-5-|
E|-----------------------------------------3-3---3---------|
 
   Bm              D              Em          G       A       Bm
e|--------------------------------------------------------------------|
B|--------------------------------------------------------------------|
G|---------------4-4------------4-4-----------------------------------|
D|-------4-4-5-5-----5-5-4-4--5-----4-4-2-2-----------------------4-4-|
A|-2-2-2------------------------------------------2---0-0-5-5-2-2-----|
E|--------------------------------------------3-3---3-----------------|
 
Bm                     D                     Em      G  A
Zdaj vsaj veš kako in kaj, za svetlobo pade senca.
e|-------------------------|
B|-------------------------|
G|-------------------------|
D|---------------------4-4-|
A|-----2---0-0-5-5-2-2-----|
E|-3-3---3-----------------|
 
Bm                  D                       Em      G  A
In tudi jeklo se stali, pes ni vedno tvoj kolega.
e|-----------------|
B|-----------------|
G|-----------------|
D|-----------------|
A|-----2---0-0-5-5-|
E|-3-3---3---------|
 
 
REFREN 2:  (02:55 - 03:35)
 
Kaj  ko pride dan, ko nas tepejo z rožami, tepejo do krvi.
e|----------------------------------------------------------------------|
B|----------------------------------------------------------------------|
G|-----------------7--4-4--------7--4-4---------7--4-4--------7---------|
D|-----------------7--4-4--5--2--7--4-4---------7--4-4--5--2--7----7----|
A|---------2-------5--2-2--5--2--5--2-2--5-6-7--5--2-2--5--2--5----7----|
E|-2-3-2-0---3-2-3---------3--0-------------------------3--0-------5----|
                       M             M        M     M
 
In se zgodi, da grebejo z rokami, grebejo brez prsti.
e|-----------------------------------------------|
B|-----------------------------------------------|
G|-7--4-4--------7--4-4---------7--4-4--------7~~|
D|-7--4-4--5--2--7--4-4---------7--4-4--5--2--7~~|
A|-5--2-2--5--2--5--2-2--5-6-7--5--2-2--5--2--5~~|
E|---------3--0-------------------------3--0-----|
       M             M        M     M
 
e|------------------------------------------------------------------------------------------------|
B|------------------------------------------------------------------------------------------------|
G|~~----------------------------------------7~~~~-------------------------------------------------|
D|~~------------------------7~~~~------2~~~~7~~~~------7~~~~~~~-----------9------------------9----|
A|~~5-7-5-7~~~~7-5~~~~5-7-5-7~~~~------2~~~~5~~~~5-7-5-7~~~~~~~--9-10-9-7---10-9-10-9-10-9-7---10-|
E|--------------------------5~~~~5-7-5-0~~~~-----------5~~~5-5-5----------------------------------|
                                                                                                 M
 

trzalica bartrzalica bar

Dodaj komentar


Varnostna koda
Osveži

  Iskanje

config