besedilo  01 (nulaena) (bas)

trzalica.com besedilo akordi tablature

Legenda ikon:


Pogoji uporabe.    

besedilo z akordi besedilo z akordi
tablature tablatura (tabulatura)
tablature tablatura za bas
tablature videolekcija

GuitarPro GutarPro (GP)
note Note (v PDF formatu)
sibelius Sibelius (SIB), itd.
..

Vse verzije te pesmi:      01 (nulaena) (tab)       01 (nulaena) (bas)

trzalica bar

Izvajalec: ..................... Siddharta
Skladba: ....................... 01 (nulaena)
Transkripcijo izdelal .......... Damien
Vrsta transkripcije ............ Tabulatura za bas kitaro
Domača stran transkripcije ..... Siddhartin uradni forum: http://forum.siddharta.net
Link do teme, kjer se nahaj ta tabulatura: 
http://forum.siddharta.net/cgi-bin/313/ikonboard.cgi?act=ST;f=22;t=2945;st=0;&#entry969309

================================================================================================

Here you go, just tabbed it. I hope it's correct.
The first part is the intro & the easy going melody, the second part is for the chorus.
Enjoy!

Damien


1st part

G||-------------4-------|-------------2-------|---------------------|
D||---------------------|-----------------0---|--2------------------|
A||--2---------------4/-|--5------------------|------2--------------|
E||---------------------|---------------------|----------0----------|

                                                                   
------0---------------|---------------------|----------------------|
----------------------|---------------------|--0------12--------0--|
-------------0--------|--2----------2---4---|----------------------|
--3-------3-----------|---------------------|----------------------|

                                                           
---------------------|------0----------2------|------|------|
--2------------------|------------------------|------|------|
------2--------------|-------------0-------0--|------|------|
----------0----------|--3-------3-------------|------|------|



 2nd part                                                                            
-------------------------|--------------------------|-------------------------|
--0----------------------|--0------------0--1--2----|--0----------------------|
-----2-2--2-2------------|-----2-2--2-2-------------|-----2-2--2-2------------|
---------------3----0----|--------------------------|---------------3----0----|

                                                                        
--------------------|-------------------------|--------------------------|
--0-----------------|--0----------------------|--0------------0--1--2----|
-----------0--------|-----2-2--2-2------------|-----2-2--2-2-------------|
--------------------|---------------3----0----|--------------------------|

                                                     
-------------------------|----------------------------|
--0----------------------|--0--0-0--0-0--0-0-0--0--0--|
-----2-2--2-2------------|----------------------------|
---------------3----0----|----------------------------|

                                                         
----------------------------|----------------------------|
--2--2-2--2-2--2-2-2--2--2--|--0--0-0--0-0--0-0-0--0--0--|
----------------------------|----------------------------|
----------------------------|----------------------------|

                                                                   
------2-----2-----2-----2-2---2--|---------------------------------|
----5-----5-----5-----5-----5----|------2-----2-----2-----2-2---2--|
--0-----0-----0-----0------------|----5-----5-----5-----5-----5----|
---------------------------------|--0-----0-----0-----0------------|

                                                 
----------------------------|-------------------||
--0--0-0--0-0--0-0-0--0--0--|-------------------||
----------------------------|--0----------------||
----------------------------|-------------------||


trzalica bartrzalica bar

Dodaj komentar


Varnostna koda
Osveži

  Iskanje

config