tablatura akordi besedilo   Alarm (tab)

trzalica.com besedilo akordi tablature

Legenda ikon:


Pogoji uporabe.    

besedilo z akordi besedilo z akordi
tablature tablatura (tabulatura)
tablature tablatura za bas
tablature videolekcija

GuitarPro GutarPro (GP)
note Note (v PDF formatu)
sibelius Sibelius (SIB), itd.
..

   ___________________________________________________________
  |  _______________________________________________________  |
  | |                                                       | |
  | | IZVAJALEC: .............. Siddharta                   | |
  | | PESEM: .................. Alarm                       | |
  | | ALBUM: .................. Saga                        | |
  | | LETO IZIDA: ............. 2009                        | |
  | | DOMAČA STRAN: ........... www.siddharta.net           | |
  | |_______________________________________________________| |
  | |                                                       | |
  | |           Avtor transkripcije: AliAs                  | |
  | |    Domača stran transkripcije: Trzalica.com           | |
  | |  Datum nastanka transkripcije: 1.5.2010               | |
  | |_______________________________________________________| |
  |___________________________________________________________|
 
================================================================================================
 
PRIJEMI AKORDOV:                  Power akordi za Refren 2
        C#m - X 4 6 6 5 4                4 4 6 X X X
        D   - X 5 7 7 7 X
        E   - 0 2 2 1 0 0                0 2 2 X X X
        F#m - 2 4 4 2 2 2                2 4 4 X X X
        F#  - 2 4 4 3 2 2
        Hm  - X 2 4 4 3 2                X 2 4 4 X X
 
================================================================================================
www.trzalica.com    www.trzalica.com    www.trzalica.com    www.trzalica.com    www.trzalica.com
================================================================================================
 
 
VERZ 1:
 
Kitara 1:
             8x
e|----2---------------------||---------------------------------|
H|----2---------------------||---------------------------------|
G|----2---------------------||---------------------------------|
D|-4------------------------||---------------------------------|
A|-4---------------4--------||-----4-4-2-0-0-0-0-2-2-2-2-2-0-0-|
E|-2------0-2-0-2-----2--0--||-2-2-----------------------------|
 
Kitara 2:
                    4x
e|----2--/14----\----2--------------------||---------------------------------|
H|----2--/14----\----2--------------------||---------------------------------|
G|----2--/14----\----2--------------------||---------------------------------|
D|-4--------------4-----------------------||---------------------------------|
A|-4--------------4--------------4--------||-----4-4-2-0-0-0-5-7-7-7-2-2-0-0-|
E|-2--------------2------0-2-0-2----2--0--||-2-2-----------------------------|
 
        Razbite sirene modre luči
        prasice nam kradejo zdravo kri
 
        Distorzirane fabrike fantazij
        te le retardirajo roj ljudi
 
 
REFREN 1:
 
        Hm                E
        Sinje modro je nebo
                        F#m          C#m
        na nas je da ostane vedno tako
        Hm                E
        tu ne rabimo živali
                F#m
        ki kradejo
        Hm                E
        Koga najbolj peče rit
                        F#m          C#m
        se vidi na obrazu sklonjenih
        Hm              E
        ti ne vidijo neba
                  F#m            F#
        le pot do dna, le pot do dna, do dna
 
 
VERZ 2:
 
Kitara 1 in 2:
             4x                                 2x
e|----2---------------------|-----------------2---------------------|
H|----2---------------------|-----------------2---------------------|
G|----2---------------------|-4-----9---------2---------------------|
D|-4------------------------|-4-----9------4------------------------|
A|-4---------------4--------|-2-----7------4---------------4--------|
E|-2------0-2-0-2-----2--0--|--------------2------0-2-0-2-----2--0--|
 
      Hm              E              F#m
        in pesmi lebdijo ni pravih kril
      Hm           E              F#m
        vrtinec odnaša srce domišljij
      Hm              E
        brez kritike tonejo
                  C#m  D
        svet se duši
      Hm            E
        prižgimo sirene
                    F#
        zbudimo ljudi, ljudi, ljudi, ljudi, ljudi
 
 
REFREN 2:
 
        Hm                E
        Sinje modro je nebo
                        F#m          C#m
        na nas je da ostane vedno tako
        Hm                E
        tu ne rabimo živali
                F#m
        ki kradejo
 
e|-------------------------|
H|-------------------------|
G|-------------------------|  F#m prehod v drugo kitico
D|-------------------------|  na kitari 1 in 2.
A|----------------4--------|
E|-2--5---0-2-0-2----2--0--|
 
        Hm                E
        Koga najbolj peče rit
                        F#m          C#m
        se vidi na obrazu sklonjenih
        Hm              E
        ti ne vidijo neba
                  F#m
        le pot do dna
 
              4x                                    2x
e|-------------------------|-------------------------------------------------|
H|-------------------------|-------------------------------------------------|
G|-------------------------|-------------------------------------------------|
D|-------------------------|-------------------------------------------------|
A|----------------4--------|----------------4-----------------------4--------|
E|-2--5---0-2-0-2----2--0--|-2--5---0-2-0-4----4--0--2--5---0-2-0-2----2--0--|
 
 
ZAKLJUČEK:
 
        Hm                E
        Sinje modro je nebo
                        F#m          C#m
        na nas je da ostane vedno tako
        Hm                E
        tu ne rabimo živali
                F#
        ki kradejo
        Hm                E
        Koga najbolj peče rit
                        F#m          C#m
        se vidi na obrazu sklonjenih
        Hm              E
        ti ne vidijo neba
                  F#
        le pot do dna
 
e|-------------------------------------------------------------------------------------------------|
H|-------------------------------------------------------------------------------------------------|
G|-------------------------------------------------------------------------------------------------|  2x
D|-------------------------------------------------------------------------------------------------|
A|----------------4-----------------------4-----------------------4-----------4-----------4--------|
E|-2--5---0-2-0-4----4--0--2--5---0-2-0-2----2--0--2--5---0-2-0-4----4--0--2------0-2-0-2----2--0--|
 
        Hm                E
        Sinje modro je nebo
                        F#m          C#m
        na nas je da ostane vedno tako
        Hm                E
        tu ne rabimo živali
                F#
        ki kradejo
        Hm                E
        Koga najbolj peče rit
                        F#m          C#m
        se vidi na obrazu sklonjenih
        Hm              E
        ti ne vidijo neba
                  F#
        le pot do dna
 

trzalica posnetek bar

trzalica bar
 

Dodaj komentar


Varnostna koda
Osveži

  Iskanje

config