tablatura akordi besedilo   Angel diabolo (tab)

trzalica.com besedilo akordi tablature

Legenda ikon:


Pogoji uporabe.    

besedilo z akordi besedilo z akordi
tablature tablatura (tabulatura)
tablature tablatura za bas
tablature videolekcija

GuitarPro GutarPro (GP)
note Note (v PDF formatu)
sibelius Sibelius (SIB), itd.
..

   ___________________________________________________________
  |  _______________________________________________________  |
  | |                                                       | |
  | | IZVAJALEC: .............. Siddharta                   | |
  | | PESEM: .................. Angel diabolo               | |
  | | ALBUM: .................. Saga                        | |
  | | LETO IZIDA: ............. 2009                        | |
  | | DOMAČA STRAN: ........... www.siddharta.net           | |
  | |_______________________________________________________| |
  | |                                                       | |
  | |           Avtor transkripcije: AliAs                  | |
  | |    Domača stran transkripcije: Trzalica.com           | |
  | |  Datum nastanka transkripcije: 15.11.2009             | |
  | |_______________________________________________________| |
  |___________________________________________________________|
 
================================================================================================
 
PRIJEMI AKORDOV:
A   - X 0 2 2 2 0
B   - X 1 3 3 3 X
D   - X X 0 2 3 2
E   - 0 2 2 1 0 0
Em  - 0 2 2 0 0 0
F   - 1 3 3 2 1 1
F#  - 2 4 4 3 2 2
F#m - 2 4 4 2 2 2
G   - 3 5 5 4 3 3
G#  - 4 6 6 5 4 4
Hm  - 2 2 4 4 3 2
 
================================================================================================
www.trzalica.com    www.trzalica.com    www.trzalica.com    www.trzalica.com    www.trzalica.com
================================================================================================
 
 
UVOD:
 
   Hm
e|-7--7--7--7 -7--7--7--7--|
B|-7--7--7--7--7--7--7--7--|
G|-7--7--7--7--7--7--7--7--|  2x
D|-9--9--9--9--9--9--9--9--|
A|-9--9--9--9--9--9--9--9--|
E|-7--7--7--7--7--7--7--7--|
 
 
VERZ 1:
 
Hm
Glej To Čudo Z Malimi Rogovi
Em
Od Nekdaj Se Po Meni Sprehaja
Hm
Ni Mu Hudega Ljubezni Ubit
Em
Saj S Tem Le Simfonija Nastaja
Hm
Daj ... Naredi Si Uslugo In Pij
Em
To Vino Ki Se V Meni Pretaka
Hm
Pusti Da Me Greje Mali Hudič
Em
Njegov Obraz Me Vedno Nasmeje
 
   Hm                      Em
e|-7--7--7--7--7--7--7--7--7--7--7--7--7--7--7--7--|
B|-7--7--7--7--7--7--7--7--8--8--8--8--8--8--8--8--|
G|-7--7--7--7--7--7--7--7--9--9--9--9--9--9--9--9--|  6x
D|-9--9--9--9--9--9--9--9--9--9--9--9--9--9--9--9--|
A|-9--9--9--9--9--9--9--9--7--7--7--7--7--7--7--7--|
E|-7--7--7--7--7--7--7--7--------------------------|
 
 
Prehod v RIFF 1:
 
G
Nikoli
       Em
Nikoli
          F#
Ne Reži Kril Hudiču
 
   G     Em   F#
e|------------------|
B|-12----8----10----|
G|-12----9----10----|
D|-12----9----10----|
A|-10----7----9-----|
E|------------------|
 
 
RIFF 1:
 
   Hm                      Em                          Hm                      Em
e|---------------------------------XXX---XXX-------------------------------------------XXX---XX---------|
B|---------------------------------XXX---XXX-------------------------------------------XXX---XX---------|
G|---------------------------------XXX---XXX-------------------------------------------XXX---XX---------|
D|---------------------------------XXX---XXX------------------------------(4)----------XXX---XX---------|
A|-----------------7---5---7-7-5-7-XXX-7-XXX-7-5---7-------------------7---5---7-7-5-7-XXX-7-XX---------|
E|-7-7-5-7---7-5-7---------7-7-5-7-XXX-7-XXX-7-5---7---7-7-5-7---7-5-7---------7-7-5-7-XXX-7-XX-0-7-5---|
 
 
VERZ 2:
 
Hm
 
Hm
Greva Lava Moja Neznano Kam
Em
Kjer Me Lahko Boš Zopet Slekla
Hm
Narediva Nekaj Lepih Napak
Em
Ni Važno Kaj Bo Raja Rekla
Hm
Bolečina Ni Ovira In Strah
Em
Za Naju Niti Ne Obstaja
Hm
Ni Potrebe Da Bi Širil Laži
Em
Sredinec Me Rešuje Na Poti
 
   Hm                      Em
e|-7--7--7--7--7--7--7--7--7--7--7--7--7--7--7--7--|
B|-7--7--7--7--7--7--7--7--8--8--8--8--8--8--8--8--|
G|-7--7--7--7--7--7--7--7--9--9--9--9--9--9--9--9--|  4x
D|-9--9--9--9--9--9--9--9--9--9--9--9--9--9--9--9--|
A|-9--9--9--9--9--9--9--9--7--7--7--7--7--7--7--7--|
E|-7--7--7--7--7--7--7--7--------------------------|
 
 
 
Prehod v REFREN 1:
 
G                       Hm
Kdo Z Diamanti Strast Kupuje
G                   Hm
Komu Ljubezen Ne Diši
F#m              G
Ni Tako Daleč Stran
              Em
Kjer Vrag Stanuje
       A         D
Le Poglej Me V Oči
       G         Em   A   B
Vidiš Tu Zdaj Živi
 
 
REFREN 1:
 
        Hm
Poglej Vse To Sem Jaz
        Em      A  F#m
Poglej Vse To
        Hm
Poglej Vse To Sem Jaz
        Em      A  F#m
Poglej Vse To
 
   Hm       Em       A   F#m
e|---------------------------|
B|---------------------------|
G|---------------------------|  2x
D|-4--------2--------7---4---|
A|-2--------2--------7---4---|
E|-2--------0--------5---2---|
 
   Hm                      Em                          Hm                      Em
e|---------------------------------XXX---XXX-------------------------------------------XXX---XX---------|
B|---------------------------------XXX---XXX-------------------------------------------XXX---XX---------|
G|---------------------------------XXX---XXX-------------------------------------------XXX---XX---------|
D|---------------------------------XXX---XXX------------------------------(4)----------XXX---XX---------|
A|-----------------7---5---7-7-5-7-XXX-7-XXX-7-5---7-------------------7---5---7-7-5-7-XXX-7-XX---------|
E|-7-7-5-7---7-5-7---------7-7-5-7-XXX-7-XXX-7-5---7---7-7-5-7---7-5-7---------7-7-5-7-XXX-7-XX-0-7-5---|
 
   Hm                      Em                          Hm                      Em                  D ->
e|---------------------------------XXX---XXX-------------------------------------------XXX--------------|
B|---------------------------------XXX---XXX-------------------------------------------XXX--------------|
G|---------------------------------XXX---XXX-------------------------------------------XXX--------------|
D|---------------------------------XXX---XXX------------------------------(4)----------XXX--------------|
A|-----------------7---5---7-7-5-7-XXX-7-XXX-7-5---7-------------------7---5---7-7-5-7-XXX-7--7--7-5----|
E|-7-7-5-7---7-5-7---------7-7-5-7-XXX-7-XXX-7-5---7---7-7-5-7---7-5-7---------7-7-5-7-XXX-7--7--7-5----|
 
 
MOST:
 
D  G  E  F
D  G  E  F#
D  G  E  G#
D  G  E  A   B
 
 Hm                   Em
Vse To,Vse To,Vse To,Vse To Sem Jaz
 Hm                   Em
Vse To,Vse To,Vse To,Vse To Sem Jaz
 
e|-10--------10-------10--------10-------10--------10-------|
B|-----10--------10-------10--------10-------10--------10---|
G|----------------------------------------------------------|
D|----------------------------------------------------------|
A|----------------------------------------------------------|
E|----------------------------------------------------------|
 
 
REFREN 2:
 
        Hm
Poglej Vse To Sem Jaz
        Em      A  F#m
Poglej Vse To
        Hm
Poglej Vse To Sem Jaz
        Em      A  F#m
Poglej Vse To
 Hm                   Em
Vse To,Vse To,Vse To,Vse To Sem Jaz
 Hm                   Em
Vse To,Vse To,Vse To,Vse To Sem Jaz
 
              2x                       2x
   Hm       Em       A   F#m   Hm       Em
e|---------------------------|-2--------0--------|
B|---------------------------|-3--------0--------|
G|---------------------------|-4--------0--------|
D|-4--------2--------7---4---|-4--------2--------|
A|-2--------2--------7---4---|-2--------2--------|
E|-2--------0--------5---2---|-2--------0--------|
 
 
ZAKLJUČEK:
 
   Hm
e|-2--2--2--2--2--2--2--2--2--2--0----------|
B|-3--3--3--3--3--3--3--3--3--3--0----------|
G|-4--4--4--4--4--4--4--4--4--4--0----------|
D|-4--4--4--4--4--4--4--4--4--4--0----------|
A|-2--2--2--2--2--2--2--2--2--2--0----------|
E|-2--2--2--2--2--2--2--2--2--2--0----------|
 

trzalica posnetek bar

trzalica bar
 

Dodaj komentar


Varnostna koda
Osveži

  Iskanje

config