tablatura akordi besedilo   Apokalipsa (tab)

trzalica.com besedilo akordi tablature

Legenda ikon:


Pogoji uporabe.    

besedilo z akordi besedilo z akordi
tablature tablatura (tabulatura)
tablature tablatura za bas
tablature videolekcija

GuitarPro GutarPro (GP)
note Note (v PDF formatu)
sibelius Sibelius (SIB), itd.
..

Vse verzije te pesmi:      Apokalipsa (tab)       Apokalipsa (gp)

trzalica bar

 _______________________________________
|                                       |
| IZVAJALEC: ................ Siddharta |
| PESEM: ................... Apokalipsa |
| ALBUM: ......................... Nord |
|_______________________________________|
|                                       |
|   Transkripcija: AliAs                |
|   Domača stran: Trzalica.com          |
|_______________________________________|
 
================================================================================================
 
kitara 1. = Primož
kitara 2. = Tomi
 
LEGENDA ZNAKOV:
M = MUTE
× = palm muted
~ = let ring
p = pull off
h = hammer on
/ = slide up
\ = slide down
b = bend up za cel ton
 
================================================================================================
www.trzalica.com    www.trzalica.com    www.trzalica.com    www.trzalica.com    www.trzalica.com
================================================================================================
 
INTRO:  (00:13 - 00:38)
 
kitara 1.(00:13 - 00:21)
e|-----------------------------------|
B|------------2--------5-------7-----|
G|----0-------2--------4-------6-----|
D|-4-------4--------4-------4--------|
A|-----------------------------------|
E|-----------------------------------|
 
kitara 2.(00:13 - 00:21)
e|------------9--------12------14----|
B|----8-------10-------12------14----|
G|-11------11-------11------11-------|
D|-----------------------------------|
A|-----------------------------------|
E|-----------------------------------|
 
obe kitari:  (00:22 - 00:38)
                        3x
e|-------|------------------------------|------------------------|
B|-------|------------------------------|------------------------|
G|-------|------------------------------|----------------0~~~~~~-|
D|-4-7---|-4-4----4-4----4-4------------|-4-4----4-4--2/4~~~~~~~-|
A|-4-7---|-4-4--2-4-4--2-4-4--7--6--7\--|-4-4--2-4-4-------------|
E|-2-5---|-2-2--0-2-2--0-2-2------------|-2-2--0-2-2-------------|
            M      M      M                M      M
 
 
VERZ 1:  (00:39 - 01:11)
 
        Tisoče let človek že govori,
        zgodbe o sebi in kam gremo mi,
        eni vidijo strah v vojnah in zlu,
        drugim bliža se čas,
        ujet v večnost miru 
        in vedno se najde nekdo k nori.
 
kitara 1.
             4x
e|-----------------------|--------------------------------------------------|
B|-----------------------|--------------------------------------------------|
G|-----------------------|--------------------------------------------------|
D|-----------------------|--------------------9-----------------------------|
A|-4-4---4--4-4-7-6--7\--|-4-4---4--4-4-7-6-7--7-4-4---4-------4-4-7-6--7\--|
E|-2-2-0-2--2-2----------|-2-2-0-2--2-2----------2-2-0-2-0-0-0-2-2----------|
   ××××××××××××            ××××××××××××          ×××××××××××××××××
 
e|--------------------------------------------|
B|--------------------------------------------|
G|--------------------------------------------|
D|--------------------------------------------|
A|-4-4---4--4-4-7-6--7\--4-4---4----4-4-7--6--|
E|-2-2-0-2--2-2----------2-2-0-2--0-2-2-------|
   ××××××××××××          ××××××××××××××
 
 
PRE-REFREN 1:  (01:12 - 01:32)
 
                Bm
        Jaz pa nimam besed,
            E               F#m
        da bi spregovoru o tem,
               Bm
        in ne najdem stvari,
            E             F#m
        ki kažejo kam greeemo mi,
                Bm
        jaz prisegam na čas,
            E
        ki dons je pri nas.
 
kitara 1.(01:12 - 01:28)
   Bm              E                F#m
e|---------7------------------------------------------|
B|---7---7---7-----------10-9---9---------------------|
G|-----7-------7-------9------9---9-------------------| --2x
D|-9-------------9---9--------------9/11---9/11-------|
A|-----------------7----------------------------------|
E|----------------------------------------------------|
 
kitara 2.(01:12 - 01:28)
   Bm   E    F#m
e|-7------------------|
B|-7----9----10-------|
G|-7----9----11-------| --2x
D|-9----9----11-------|
A|-9----7----9--------|
E|-7------------------|
    ~~~~ ~~~~ ~~~~~~~~
 
 
kitara 1.(01:29 - 01:32)
   Bm                  E
e|-------------------------------------|
B|---------------------8-----------\---|
G|-111111111111111111\\11b---------\---|
D|-------------------------------------|
A|-9-9-9-9-9-9-9-9-9\\\----------------|
E|-------------------------------------|
 
kitara 2.(01:29 - 01:32)
   Bm                  E
e|-------------------------------------|
B|-------------------------------------|
G|-------------------------------------|
D|-9-9-9-9-9-9-9-9-9\\\2~~~~~~~~~~~~~~-|
A|---------------------2~~~~~~~~~~~~~~-|
E|-7-7-7-7-7-7-7-7-7\\\0~~~~~~~~~~~~~~-|
 
 
REFREN 1:  (01:32 - 01:57)
 
      E         A        E
        Saj lahko se zgodi,
             Bm
        da naenkrat postanem
            D           E
        vladar vseh planetov
            A         E
        in hujše stvari,
             Bm             D
        ko glava ostane na zemlji,
           E         F#m...
        telo pa zbledi.
 
obe kitari:
           --2x--
   A    E    Bm   D    E
e|------------------------|------------------------------------------------|
B|------------------------|------------------------------------------------|
G|-----------4----7----9--|------------6-6---------------------------------|
D|-7----2----4----7----9--|--4-4----4--6-6------------4-4---4--7-7-/11-9---|
A|-7----2----2----5----7--|--4-4--2-4--4-4--2-0-------4-4-2-4--7-7-/11-9---|
E|-5----0-----------------|--2-2--0-2-----------4-2-0-2-2-0-2--5-5-/-9-7---|
   8x   8x   8x   4x   4x     M      M  M              M     M  M
 
 
VERZ 2:  (01:58 - 02:30)
 
        Roke ljudi betonirajo svet,
        zajtrk sestavljen iz samih tablet,
        a zjutraj še se zdani,
        zvečer pade mrak,
        človek je še iz krvi,
        telo še zmeraj rabi zrak, 
        in sonce še nima namena umret.
 
kitara 1.
             4x
e|-----------------------|--------------------------------------------------|
B|-----------------------|--------------------------------------------------|
G|-----------------------|--------------------------------------------------|
D|-----------------------|--------------------9-----------------------------|
A|-4-4---4--4-4-7-6--7\--|-4-4---4--4-4-7-6-7--7-4-4---4-------4-4-7-6--7\--|
E|-2-2-0-2--2-2----------|-2-2-0-2--2-2----------2-2-0-2-0-0-0-2-2----------|
   ××××××××××××            ××××××××××××          ×××××××××××××××××
 
e|--------------------------------------------|
B|--------------------------------------------|
G|--------------------------------------------|
D|--------------------------------------------|
A|-4-4---4--4-4-7-6--7\--4-4---4----4-4-7--6--|
E|-2-2-0-2--2-2----------2-2-0-2--0-2-2-------|
   ××××××××××××          ××××××××××××××
 
 
PRE-REFREN 2:  (02:31 - 02:51)
 
                Bm
        In ker nimam besed,
            E               F#m
        da bi spregovoru o tem,
               Bm
        in ne najdem stvari,
            E             F#m
        ki kažejo kam greeemo mi,
                Bm
        jaz prisegam na čas,
            E
        ki dons je pri nas.
 
kitara 1.(02:31 - 02:47)
   Bm              E                F#m
e|---------7------------------------------------------|
B|---7---7---7-----------10-9---9---------------------|
G|-----7-------7-------9------9---9-------------------| --2x
D|-9-------------9---9--------------9/11---9/11-------|
A|-----------------7----------------------------------|
E|----------------------------------------------------|
 
kitara 2.(02:31 - 02:47)
   Bm   E    Fi#
e|-7------------------|
B|-7----9----10-------|
G|-7----9----11-------| --2x
D|-9----9----11-------|
A|-9----7----9--------|
E|-7------------------|
    ~~~~ ~~~~ ~~~~~~~~
 
 
kitara 1.(02:47 - 02:51)
   Bm                  E
e|-------------------------------------|
B|---------------------8-----------\---|
G|-111111111111111111\\11b---------\---|
D|-------------------------------------|
A|-9-9-9-9-9-9-9-9-9\\\----------------|
E|-------------------------------------|
 
kitara 2.(02:47 - 02:51)
   Bm                  E
e|-------------------------------------|
B|-------------------------------------|
G|-------------------------------------|
D|-9-9-9-9-9-9-9-9-9\\\2~~~~~~~~~~~~~~-|
A|---------------------2~~~~~~~~~~~~~~-|
E|-7-7-7-7-7-7-7-7-7\\\0~~~~~~~~~~~~~~-|
 
 
REFREN 2:  (02:51 - 03:09)
 
      E         A        E
        Saj lahko se zgodi,
             Bm
        da naenkrat postanem
            D           E
        vladar vseh planetov
            A         E
        in hujše stvari,
             Bm             D
        ko glava ostane na zemlji,
           E         F#m
        telo pa zbledi.
 
obe kitari:
           --2x--
   A    E    Bm   D    E    F#m
e|------------------------|--------|
B|------------------------|--------|
G|-----------4----7----9--|-11~~~~-|
D|-7----2----4----7----9--|-11~~~~-|
A|-7----2----2----5----7--|-9-~~~~-|
E|-5----0-----------------|--------|
   8x   8x   8x   4x   4x         M
 
 
BRIDGE:  (03:10 - 04:16)
        Bridge sem razdelil v tri dele:
                        ××××××××bridge1(03:10 - 03:42)
                        ××××××××bridge2(03:43 - 03:59)
                        ××××××××bridge3(04:00 - 04:16)
 
××××××××bridge1(03:10 - 03:42)
kitara 1.                                           |------ta del je samo v tretji ponovitvi
e|-------------------------------------------------------------|
B|---------------------------------12---14-14-15-14-(14h15p14)-|
G|---------11---9-9-11-9---12-9-12-----------------------------| --4x
D|-12-9-12-----------------------------------------------------|
A|-------------------------------------------------------------|
E|-------------------------------------------------------------|
 
kitara 2.
e|------------------------------------------------|
B|------------------------------------------------|
G|------------------------------------------------| --4x
D|-------------------------------9---11-11-12-11--|
A|---------9---7-7-9-7---10-7-10------------------|
E|-10-7-10----------------------------------------|
 
××××××××bridge2(03:43 - 03:59)
kitara 1.
          3x
e|-----------------|-------------------|
B|-------3---------|-------3-----------|
G|-4---4-----------|-4---4-------------|
D|-4-4-----4-4-----|-4-4-----4-2~~~~~~-|
A|-2-------4-4-----|-2-------4-2~~~~~~-|
E|---------2-2-----|---------2-0~~~~~~-|
    M M M M   M       M M M M
 
kitara 2.
          3x
e|-------7---------|-------7-----------|
B|-----3-----------|-----3-------------|
G|-4-4-------------|-4-4---------------|
D|-4-------4-4-----|-4-------4-2~~~~~~-|
A|-2-------4-4-----|-2-------4-2~~~~~~-|
E|---------2-2-----|---------2-0~~~~~~-|
    M M M M   M       M M M M
 
××××××××bridge3(04:00 - 04:16)
kitara 1.
e|---------------------------------------------------------------------------------------------|
B|---------------------------------------------------------------------------------------------|
G|---------------------------------------------------------------------------------------------|
D|-4-4---4-4---------------4-4---4--4-4---4--4-4---4-4---------------4-4---7-7--11-11--14-14---|
A|-2-2-0-2-2-0-4-4---4-4-0-2-2-0-2--2-2-0-2--2-2-0-2-2-0-4-4---4-4-0-2-2-0-5-5-0-9-9-0-12-12-0-|
E|-------------2-2-0-2-2---------------------------------2-2-0-2-2-----------------------------|
   ×××××××××××××××××××××××××××××××××××××××××××××××××××××××××××××××××××××××××××××××××××××××××
 
kitara 2.(04:07 - 04:15)
e|------------9--------12------14----|
B|----8-------10-------12------14----|
G|-11------11-------11------11-------|
D|-----------------------------------|
A|-----------------------------------|
E|-----------------------------------|
 
 
REFREN 3:  (04:16 - 04:35)
 
                A        E
        Saj lahko se zgodi,
             Bm
        da naenkrat postanem
            D           E
        vladar vseh planetov
            A         E
        in hujše stvari,
             Bm             D
        ko glava ostane na zemlji,
           E           F#m E F#m
        telo pa zbledi.
 
obe kitari:
           --2x--
   A    E    Bm   D    E
e|-------------------------|---------|
B|-------------------------|---------|
G|-----------4----7----9---|---------|
D|-7----2----4----7----9---|--4-2-4--|
A|-7----2----2----5----7---|--4-2-4--|
E|-5----0------------------|--2-0-2--|
   8x   8x   8x   4x   4x   M       M
 

trzalica bartrzalica bar

Dodaj komentar


Varnostna koda
Osveži

  Iskanje

config