tablatura akordi besedilo   Autumn sun (tab)

trzalica.com besedilo akordi tablature

Legenda ikon:


Pogoji uporabe.    

besedilo z akordi besedilo z akordi
tablature tablatura (tabulatura)
tablature tablatura za bas
tablature videolekcija

GuitarPro GutarPro (GP)
note Note (v PDF formatu)
sibelius Sibelius (SIB), itd.
..

   ___________________________________________________________
  |  _______________________________________________________  |
  | |                                                       | |
  | | IZVAJALEC: .............. Siddharta                   | |
  | | PESEM: .................. Autumn sun                  | |
  | | ALBUMI: ...... Silicon delta / Izštekani / Maraton    | |
  | | LETO IZIDA:        2002          2007       2007      | |
  | | DOMAČA STRAN: ........... www.siddharta.net           | |
  | |_______________________________________________________| |
  | |                                                       | |
  | |           Avtor transkripcije: AliAs                  | |
  | |    Domača stran transkripcije: Trzalica.com           | |
  | |  Datum nastanka transkripcije: 17.11.2007             | |
  | |_______________________________________________________| |
  |___________________________________________________________|
 
Prva različica te pesmi (remix) se je pojavila na albumu Silicon delta; Siddharta pa jo je
v živo prvič ivedla 21.9.2007 v oddaji Izštekani na Valu 202 v akustični izvedbi. Na Siddharta
Maratonu, ki se je zgodil nekaj dni kasneje (5.10.2007), pa so jo izvedli prvič pred koncertno
publiko (v akustičnem delu koncerta). Siddharta trdi, da je ta akustična verzija originalna
verzija te pesmi (to razkrijejo v Izštekanih).
Ta transkripcija je napisana prav za izvedbo v Izštekanih, za verzijo z albuma Silicon delta pa
igrajte samo akorde iz besedila.
 
================================================================================================
 
LEGENDA ZNAKOV:
       ( )= neslišni toni
        / = slide up
        \ = slide down
 
Tomi igra samo akorde, Primož pa igra po spodaj napisani tabulaturi (med verzom
in refrenom uporablja akorde, ki sem jih napisal v tabeli).
 
PRIJEMI AKORDOV:
 
                  Tomi             Primož
        A   - X 0 2 2 2 0   >   X X X 9 10 9
        Bm  - X 2 4 4 3 2   >   X X 9 11 12 10
        E   - 0 2 2 1 0 0   >   X X X 9 9 7
        F#m - 2 4 4 2 2 2   >   X X X 11 10 9
        G   - 3 2 0 0 0 3   >   X X X 7 8 7
 
================================================================================================
www.trzalica.com    www.trzalica.com    www.trzalica.com    www.trzalica.com    www.trzalica.com
================================================================================================
 
INTRO:
 
   Bm                     A                 Bm                      A
e|---------10----9-----10-9--------9--------------10-------------10-9-----9----------|
B|------12----------12-------10-10------10-----12----12-------12------10----10-------|
G|---11-------------------------------------11-------------11------------------------|
D|-9---------------------------------------------------------------------------------|
A|-----------------------------------------------------------------------------------|
E|-----------------------------------------------------------------------------------|
 
   E            F#m                        Bm
e|-----7-----------9-------9-------9-------------7------------10----------|
B|---9---9-----------10------10------10--------7-----------12----12-------|
G|-9------------11------11------11-----------7----------11----------------|
D|-----------------------------------------9----------9-------------------|
A|------------------------------------------------------------------------|
E|------------------------------------------------------------------------|
 
 
VERZ:
 
        Bm                            G
        Wet sunny morning in my dark room
     A         G               Bm
        I am alone but i feel good
        Bm                       G
        Beautiful town is under me
     A              G                     Bm
        Reflecting lights between autumn leaves
        Bm                                   G
        So quiet so cold most people are working
     A           G              Bm
        So far away is horizon seen
 
 
REFREN:
 
        Bm                 G         A       G
        And there's this white cloud in the sky
                  G         A           G
        Touching mountains covered in snow
                G       A     G
        Silver wind is here again
              G        A     Bm
        I am king but so unknown
 
 
BRIDGE:
 
   Bm                            G                          A
e|-------10-------------10-----------7----------7------7--7-7/9-------9--9--|
B|-12-12----12-------12----12------8---8------8---8----8--8-8/10------10-10-|
G|-11-------------11-------------7----------7----------7--7-7/9-------9--9--|
D|-9------------------------------------------------------------------------|
A|--------------------------------------------------------------------------|
E|--------------------------------------------------------------------------|
 
   G        Bm                                                             G
e|-9-\7-----------10--------------10--------------10-------------10-----------7------7-7--7-7----7--7--7|
B|-10\8--------12----12--------12----12--------12----12-------12----12------8---8----8-8--8-8----8--8--8|
G|-9-\7-----11--------------11--------------11------------(11)------------7----------7-7--7-7----7--7--7|
D|----------9---------------9---------------------------------------------------------------------------|
A|------------------------------------------------------------------------------------------------------|
E|------------------------------------------------------------------------------------------------------|
 
 
   A                     G                        Bm
e|-7/9-----9------9------7-----7-----7----(7)--------------|
B|-8/10------10-----10-----8-----8-----8----(8)------------|
G|-7/9----------9------9-----7-----7-----7----(7)----------|
D|---------------------------------------------------------|
A|---------------------------------------------------------|
E|---------------------------------------------------------|
 
 
REFREN:
 
                           G         A       G
        And there's this white cloud in the sky
                  G         A           G
        Touching mountains covered in snow
                G       A     G
        Silver wind is here again
              G        A     Bm
        I am king but so unknown
 

trzalica posnetek bar

trzalica bar
 

Dodaj komentar


Varnostna koda
Osveži

  Iskanje

config