tablatura akordi besedilo   B mashina (tab)

trzalica.com besedilo akordi tablature

Legenda ikon:


Pogoji uporabe.    

besedilo z akordi besedilo z akordi
tablature tablatura (tabulatura)
tablature tablatura za bas
tablature videolekcija

GuitarPro GutarPro (GP)
note Note (v PDF formatu)
sibelius Sibelius (SIB), itd.
..

 _______________________________________
|                                       |
| IZVAJALEC: ................ Siddharta |
| PESEM: .................... B mashina |
| ALBUM: ......................... Nord |
|_______________________________________|
|                                       |
|   Transkripcija: AliAs                |
|   Domača stran: Trzalica.com          |
|_______________________________________|
 
================================================================================================
 
LEGENDA:
M = Mute
× = palm muted
\ = slide down
/ = slide up
~ = let ring
 
================================================================================================
www.trzalica.com    www.trzalica.com    www.trzalica.com    www.trzalica.com    www.trzalica.com
================================================================================================
 
INTRO: violončelo na kitari (00:09 - 00:14)
   F#m                 E      D                   C#
e|--------------------------------------------------|
B|--------------------------------------------------|
G|-11-11-11-11--11--11-9------7--7--7--7---7---7--6-|
D|--------------------------------------------------|
A|-9--9--9--9---9---9--7------5--5--5--5---5---5--4-|
E|--------------------------------------------------|
 
 
PRE-VERZ 1: (00:14 - 00:29)
   F#m     E        D       C#        F#m     E        D       C#
e|----------------------------------------------------------------------------|
B|----------------------------------------------------------------------------|
G|----------------------------------------------------------------------------|
D|-4----4--2-2---2--7----7--6-6---6-6-4----4--2-2---2--7----7--6-6---6--------|
A|-4--4-4--2-2-2-2--5--5-5--4-4-4-4-4-4--4-4--2-2-2-2--5--5-5--4-4-4-4--------|
E|-2--2-2--0-0-0-0--5--5-5--4-4-4-4-4-2--2-2--0-0-0-0--5--5-5--4-4-4-4--------|
      ×        ×       ×        ×        ×        ×       ×        ×  ~~~~~~~~
 
 
VERZ 1: (00:29 - 00:40)
        F#m      E        D           C#
        Samo en dan je ostal samo en dan
     F#m       E       D           C#
Oddajamo ostale mi gremo drugam
 
 
PRE-VERZ 2: (00:40 - 00:52)
   F#m     E        D       C#         F#m    E        D       C#
e|-----------------------------------------------------------------------|
B|-----------------------------------------------------------------------|
G|-----------------------------------------------------------------------|
D|-4----4--2-2---2--7----7--6-6---6-6------4--2-2---2--7----7--6-6---6---|
A|-4--4-4--2-2-2-2--5--5-5--4-4-4-4-4--44--4--2-2-2-2--5--5-5--4-4-4-4---|
E|-2--2-2--0-0-0-0--5--5-5--4-4-4-4-4--22--2--0-0-0-0--5--5-5--4-4-4-4---|
      ×        ×       ×        ×    M ××         ×       ×        ×
 
 
VERZ 2: (00:52 - 01:15)
     F#m               E             D                C#
        Dons krademo vsi dons smo žival lastnine več ni.
     F#m              E                    D                C#
        Dobil smo možgane od divjakov in krila za let do oblakov.
     F#m          E         D              C#          F#m
        Naj pade sonce v ocean, nad nami bruha naj vulkan.
                   E             D               C#
        Za nas je dost da imamo moč in znanje s čimer sanje.
 
 
REFREN 1: (01:15 - 01:37)
        F#m          E          Bm   E
        In mashine dvigamo v nebo,  nad vse
              F#m  E            Bm
        naj spijo  oni ki ne vedo
         E
        da je zadn dan in zadn dan
        ta zadn dan ta zadn danes ni noben
 
   C#        F#m     E        Bm      E         F#m     E        Bm      E
e|--------------------------------------------------------------------------------------|
B|--------------------------------------------------------------------------------------|
G|------7\6-----------------------------------------------------------------------------|
D|-----------4----4--2-2---2--4----4--2-2---2-2-4----4--2-2---2--4----4--2-2---2--------|
A|-4-4--5\4--4--4-4--2-2-2-2--2--2-2--2-2-2-2-2-4--4-4--2-2-2-2--2--2-2--2-2-2-2--------|
E|-4-4-------2--2-2--0-0-0-0--2--2-2--0-0-0-0-0-2--2-2--0-0-0-0--2--2-2--0-0-0-0--------|
   ×××     M    ×        ×       ×        ×        ×        ×       ×        ×  ~~~~~~~~
 
e|-----------------------------------|
B|-----------------------------------|
G|-----------------------------------|
D|-----------------------------------|
A|-2-2---------7-9--4-7-0-2--2/4-2-2-|
E|-0-0---0-7-------------------------|
   ×××      M
 
 
VERZ 3: (01:37 - 02:00)
        A           E           D         C#
        Miljon mashin na nitroglicerni grmi v nas
        F#m          E                 D
        Ni sile ni dnarja in ni ga vladarja
                     C#                  A
        ki bi nas ustavil in zamenjal obraz
                  E          Bm
        preden vstanem se ozrem
                  E              F#m
        zdaj je uničen vsak problem
                  E         D
        dvigujem roke in telo
                  C#
        na vrh vesolja v zvezde gremo...
 
 
REFREN 2: (02:00 - 02:41)
        C#        F#m       E          Bm  E
        ...gremo. Mashine dvigamo v nebo  nad vse
              F#m  E            Bm
        naj spijo  oni ki ne vedo
         E                   F#m    E
        da je zadn dan (naj spijo) 
                    Bm
        ti ki ne vedo
         E          F#m   E         Bm           (F#m  E)
        nas napaja divja b-mashina se ne vda
 
                                                  -- 3x --
   C#                                F#m     E        Bm      E
e|---------------------------------|------------------------------------|
B|---------------------------------|------------------------------------|
G|---------------------------------|------------------------------------|
D|-6-6---6-6---6-6---6-6---6-6-6-6-|-4----4--2-2---2--4----4--2-2---2-2-|
A|-4-4---4-4---4-4---4-4---4-4-4-4-|-4--4-4--2-2-2-2--2--2-2--2-2-2-2-2-|
E|-4-4---4-4---4-4---4-4---4-4-4-4-|-2--2-2--0-0-0-0--2--2-2--0-0-0-0-0-|
      M     M     M     M               ×        ×       ×        ×
 
                                                                          -- 2x --
   F#m     E        Bm                 2x                            F#m    E F#m    E
e|--------------------------|-----------------------|--------------|-------------------|
B|--------------------------|-----------------------|--------------|-------------------|
G|--------------------------|-----------------------|--------------|-------------------|
D|-4----4--2-2---2--4----4--|-----------------------|--------------|-4------2-4------2-|
A|-4--4-4--2-2-2-2--2--2-2--|-4-5-4-2-4--4-5-4-2-4--|-4-5-4--0-----|-4------2-4------2-|
E|-2--2-2--0-0-0-0--2--2-2--|-----------------------|-----------4--|-2------0-2------0-|
      ×        ×       ×               M          M                   ~~~~~~   ~~~~~~
 
 
PRE-BRIDGE: (02:42 - 02:53)
   F#m     E        D       C#
e|------------------------------------|
B|------------------------------------|
G|------------------------------------|   ---- 2x
D|-4----4--2-2---2--7----7--6-6---6-6-|
A|-4--4-4--2-2-2-2--5--5-5--4-4-4-4-4-|
E|-2--2-2--0-0-0-0--5--5-5--4-4-4-4-4-|
      ×        ×       ×        ×
 
 
BRIDGE: (02:53 - 03:33)
   F#m           E             D             C#
e|--------------------------------------------------------|
B|--------------------------------------------------------|
G|--------------------------------------------------------|   ---- 2x
D|--------------------------------------------------------|
A|-4-4-4--4-4-4--2-2-2--2-2-2--5-5-5--5-5-5--4-4-4--4-4-4-|
E|-2-2-2--2-2-2--0-0-0--0-0-0--5-5-5--5-5-5--4-4-4--4-4-4-|
   ××××××××××××××××××××××××××××××××××××××××××××××××××××××
 
   F#m               E                 D                 C#
e|------------------------------------------------------------------------| zdaj hitrejši ritem
B|------------------------------------------------------------------------|
G|------------------------------------------------------------------------|    ---- 1x
D|------------------------------------------------------------------------|
A|-4-4-4-4--4-4-4-4--2-2-2-2--2-2-2-2--5-5-5-5--5-5-5-5--4-4-4-4--4-4-4-4-|
E|-2-2-2-2--2-2-2-2--0-0-0-0--0-0-0-0--5-5-5-5--5-5-5-5--4-4-4-4--4-4-4-4-|
   ××××××××××××××××××××××××××××××××××××××××××××××××××××××××××××××××××××××
 
   F#m      E        D        C#
e|------------------------------------|
B|------------------------------------|
G|------------------------------------|    ---- 2x
D|------------------------------------|
A|-4-4-4-4--2-2-2-2--5-5-5-5--4-4-4-4-|
E|-2-2-2-2--0-0-0-0--5-5-5-5--4-4-4-4-|
   ××××××××××××××××××××××××××××××××××
 
   F#m        E          D          C#
e|------------------------------------------|
B|------------------------------------------|
G|------------------------------------------|    ---- 2x
D|---------4----------2----------7----------|
A|-4-4-4-4-4--2-2-2-2-2--5-5-5-5-5--4-4-4-4-|
E|-2-2-2-2-2--0-0-0-0-0--5-5-5-5-5--4-4-4-4-|
   ××××××××××××××××××××××××××××××××××××××××
 
   F#m
e|--------------|
B|--------------|
G|--------------|
D|-4~~~~~~~~~~~-|
A|-4~~~~~~~~~~~-|
E|-2~~~~~~~~~~~-|
 
 
REFREN 3: (03:52 - 04:28)
        F#m       E          Bm  E
        Mashine dvigamo v nebo  nad vse
              F#m  E            Bm
        naj spijo  oni ki ne vedo
         E
        da je zadn dan
               F#m  E               Bm
        (naj spijo)  in ti ki ne vedo
         E          F#m    E         Bm   E           F#m
        Nas napaja divja  b-mashina ki nikoli se ne vda
         G#m   A  Bm      F#m  G#m  A  Bm   F#m
             Vda, se ne vda,       vda.
 
   F#m     E        Bm      E
e|------------------------------------|
B|------------------------------------|
G|------------------------------------|   ---- 4x
D|-4----4--2-2---2--4----4--2-2---2-2-|
A|-4--4-4--2-2-2-2--2--2-2--2-2-2-2-2-|
E|-2--2-2--0-0-0-0--2--2-2--0-0-0-0-0-|
      ×        ×       ×        ×
 
               -- 2x --
   F#m   G#m       A     Bm            F#m
e|-----------------------------------|---------|
B|-----------------------------------|---------|
G|-----------------------------------|---------|
D|-----------------------------------|-----4-4-|
A|-----------------------2-2--2-4--5-|-----4-4-|
E|-2--2--4-4--4-4--5--5--------------|-2---2-2-|
                                        M     M
 

trzalica posnetek bar

trzalica bar
 

Dodaj komentar


Varnostna koda
Osveži

  Iskanje

config