tablatura akordi besedilo   Baroko - singl (tab)

trzalica.com besedilo akordi tablature

Legenda ikon:


Pogoji uporabe.    

besedilo z akordi besedilo z akordi
tablature tablatura (tabulatura)
tablature tablatura za bas
tablature videolekcija

GuitarPro GutarPro (GP)
note Note (v PDF formatu)
sibelius Sibelius (SIB), itd.
..

Vse verzije te pesmi:      Baroko (tab)       Baroko - singl (tab)

trzalica bar

   ___________________________________________________________
  |  _______________________________________________________  |
  | |                                                       | |
  | | IZVAJALEC: .............. Siddharta                   | |
  | | PESEM: .................. Baroko                      | |
  | | ALBUM: .................. Baroko (singl)              | |
  | | LETO IZIDA: ............. 2009                        | |
  | | DOMAČA STRAN: ........... www.siddharta.net           | |
  | |_______________________________________________________| |
  | |                                                       | |
  | |           Avtor transkripcije: AliAs                  | |
  | |    Domača stran transkripcije: Trzalica.com           | |
  | |  Datum nastanka transkripcije: 24.6.2009              | |
  | |_______________________________________________________| |
  |___________________________________________________________|
 
================================================================================================
 
LEGENDA ZNAKOV:
× = palm muted
/ = slide up
\ = slide down
v = vibrato
 
PRIJEMI AKORDOV:
A   - X 0 2 2 2 0
Bm  - X 2 4 4 3 X
C   - X 3 2 0 1 0
C#m - X 4 6 6 5 X
D   - X X 0 2 3 2
Em  - 0 2 2 0 0 0
F#  - 2 4 4 3 2 2
F#m - 2 4 4 2 2 2
G   - 3 2 0 0 0 3
 
 
================================================================================================
www.trzalica.com    www.trzalica.com    www.trzalica.com    www.trzalica.com    www.trzalica.com
================================================================================================
 
UVOD:
 
Solo kitara:
   Bm           F#m        G            D             Bm          F#m         G
e|-10\9-7-------9--7-------7\5---------------------------------------------------------------------------|
B|--------7-7-7------7-7-7-----5--------10----10---10-0---10---10-----10---10-------10---10-----10-------|
G|--------------------------------7-7-7-----7----7-----------7----6------6----6/7------7----7------7/9---|
D|-------------------------------------------------------------------------------------------------------|
A|-------------------------------------------------------------------------------------------------------|
E|-------------------------------------------------------------------------------------------------------|
 
   Bm           F#m        G            D
e|-10\9-7-------9--7-------7\5-----------------------|
B|--------7-7-7------7-7-7-----5--------10----10-----|
G|--------------------------------7-7-7-----7----7---|
D|---------------------------------------------------|
A|---------------------------------------------------|
E|---------------------------------------------------|
 
    Em                               G                F#m
e|----------17--------17-------17-------17-------17\--------10----9----9---|
B|-------15--------15-------15-------15-------15------10/12----12---10-----|
G|-/16----------16-------16-------16-------16------------------------------|
D|-------------------------------------------------------------------------|
A|-------------------------------------------------------------------------|
E|-------------------------------------------------------------------------|
 
Ritem kitara:
   Bm            F#m      G         D        Bm        F#m      G
e|----------------------------------------------------------------------------|
B|----------------------------------------------------------------------------|
G|----------------------------------7-----------------------------------------|
D|-----4---------4--------5---------7--------4---------4--------5----5--------|
A|-2-2-2-----2-2-4--------5-----5-5-5--------2-----2-2-4--------5----5----5-5-|
E|-2-2-2-----2-2-2--------3-----3-3-5--------2-----2-2-2--------3----3----3-3-|
   ×××       ×××                ×××                ×××                    ×××
 
   Bm        F#m      G         D        Em           G    F#m
e|---------------------------------------------------------------|
B|---------------------------------------------------------------|
G|------------------------------7--------------------------------|
D|-4---------4--------5---------7--------2----2------------------|
A|-2-----2-2-4--------5-----5-5-5--------2----2------------------|
E|-2-----2-2-2--------3-----3-3-5--------0----0---0-2-3----2-----|
         ×××                ×××
 
 
VERZ:
 
F#m
Ste videli lepote, ko jutro naredi
Srebrne bisere rose
Ste videli lepote, ko sredi noči
Zapiha veter samote
Rosa, reke in morja
                   A
Pridejo zopet z neba
      Bm       A        G        F#m
A le nate sem milijone let nemo čakal, da prideš
 
 
REFREN:
 
Ritem kitara:
   Bm        F#m      G         D        Bm        F#m      G
e|------------------------------------------------------------------------|
B|------------------------------------------------------------------------|
G|------------------------------7-----------------------------------------|
D|-4---------4--------5---------7--------4---------4--------5----5--------|
A|-2-----2-2-4--------5-----5-5-5--------2-----2-2-4--------5----5----5-5-|
E|-2-----2-2-2--------3-----3-3-5--------2-----2-2-2--------3----3----3-3-|
         ×××                ×××                ×××                    ×××
 
   Bm        F#m      G         D        Em           G    F#m
e|---------------------------------------------------------------|
B|---------------------------------------------------------------|
G|------------------------------7--------------------------------|
D|-4---------4--------5---------7--------2----2------------------|
A|-2-----2-2-4--------5-----5-5-5--------2----2------------------|
E|-2-----2-2-2--------3-----3-3-5--------0----0---0-2-3----2-----|
         ×××                ×××
 
     Bm     F#m    G        D
Vso noč bo naju dva luna skrivala
Bm      F#m      G
Zavija cesta za raj
     Bm     F#m   G     D
Vso noč bo dvigalo čudežno
Em                       G   F#m
Šla bova iz mesta nad nebesa
Bm  F#m  G  D
Em       G  A
 
 
Solo kitara:
   Bm           F#m        G            D
e|-10\9-7-------9--7-------7\5-----------------------|
B|--------7-7-7------7-7-7-----5--------10----10-----|
G|--------------------------------7-7-7-----7----7---|
D|---------------------------------------------------|
A|---------------------------------------------------|
E|---------------------------------------------------|
 
    Em                                G                 A
e|----------17--------17-------17----------17-------17\-------|
B|-------15--------15-------15--------15---------15-----------|
G|-/16----------16-------16--------16---------16--------------|
D|------------------------------------------------------------|
A|------------------------------------------------------------|
E|------------------------------------------------------------|
 
Ritem kitara:
   Bm        F#m      G         D        Em           G    A
e|---------------------------------------------------------------|
B|---------------------------------------------------------------|
G|------------------------------7--------------------------------|
D|-4---------4--------5---------7--------2----2------------2-----|
A|-2-----2-2-4--------5-----5-5-5--------2----2------------0-----|
E|-2-----2-2-2--------3-----3-3-5--------0----0---0-2-3----------|
         ×××                ×××
 
VERZ:
 
    Bm
Še zdaj ne vem kako je v tej norosti
G
Prav naju združilo vesolje
    Bm
Še zdaj ne vem kako se v oblaku melodij
G
Izbere zate prave note
      D       C      Bm         A       Bm
A najlepše besede lovim in jih zate krojim 
 
 
   D    C    Bm   A    Bm
e|-------------------------------------------------|
B|-------------------------------------------------|
G|-------------------------------------------------|
D|-------------------------------------------------|
A|-5----3----2----0----2-5-2-0-2-----0-2-5-2-0-2---|
E|-------------------------------------------------|
                       ××××××××××××××××××××××××××
 
 
REFREN:
 
     G      A      Bm       F#m
Vso noč bo naju dva luna skrivala
G
Zavija cesta za raj
     Bm     F#m   G     D
Vso noč bo dvigalo čudežno
Em                       G   F#m
Šla bova iz mesta nad nebesa
 
 
Ritem kitara:
   G         A         Bm        F#m      G
e|----------------------------------------------------|
B|----------------------------------------------------|
G|----------------------------------------------------|
D|-5---------7---------4---------4--------5-----5-----|
A|-5-----5-5-7-----7-7-2-----2-2-4--------5-----5-----|
E|-3-----3-3-5-----5-5-2-----2-2-2--------3-----3-----|
         ×××       ×××       ×××
 
   Bm        F#m      G         D        Em           G    F#m
e|------------------------------------------------------------|
B|------------------------------------------------------------|
G|------------------------------7-----------------------------|
D|-4---------4--------5---------7--------2----2-------5----4--|
A|-2-----2-2-4--------5-----5-5-5--------2----2-------5----4--|
E|-2-----2-2-2--------3-----3-3-5--------0----0---0-2-3----2--|
         ×××                ×××
 
 
MOST:
 
Ritem kitara:
   G                       Bm                      G           Em          C#m         F#
e|-------------------------------------------------------------------------------------------------|
B|-------------------------------------------------------------------------------------------------|
G|-------------------------------------------------------------9-9-9-9-9-9-------------------------|
D|-5-5-5-5-5-5-5-5-5-5-5-5-9-9-9-9-9-9-9-9-9-9-9-9-5-5-5-5-5-5-9-9-9-9-9-9-2-2-2-2-2-2-------------|
A|-5-5-5-5-5-5-5-5-5-5-5-5-9-9-9-9-9-9-9-9-9-9-9-9-5-5-5-5-5-5-7-7-7-7-7-7-4-4-4-4-4-4-4-4-4-4-4-4-|
E|-3-3-3-3-3-3-3-3-3-3-3-3-7-7-7-7-7-7-7-7-7-7-7-7-3-3-3-3-3-3-------------------------2-2-2-2-2-2-|
 
Solo kitara:
   G                                  Bm                                          G
e|---------------------------------10-10------10-10------10-10------10-10------10-10------10-10------|
B|-12------12------12------12------------------------------------------------------------------------|
G|-----12------12------12------12---------11---------11---------11---------11---------12---------12--|
D|---------------------------------------------------------------------------------------------------|
A|---------------------------------------------------------------------------------------------------|
E|---------------------------------------------------------------------------------------------------|
 
    Em                         C#m                                                         F#
e|-/12---12-12-12-12-12--15-15-15--14-14-14--12-12-12-------------------------------------------9-9-9-9-9-|
B|-----------------------------------------------------15-15-15--14-14-14--12-12-12--11-11-11-------------|
G|--------------------------------------------------------------------------------------------------------|
D|--------------------------------------------------------------------------------------------------------|
A|--------------------------------------------------------------------------------------------------------|
E|--------------------------------------------------------------------------------------------------------|
 
 
Prehod v refren:
 
Solo kitara:
   Bm           F#m        G            D
e|-10\9-7-------9--7-------7\5------------------------|
B|--------7---7------7---7-----5--------10----10---10-|
G|--------------------------------7---7-----7----7----|
D|----------------------------------------------------|
A|----------------------------------------------------|
E|----------------------------------------------------|
 
 
REFREN:
 
Bm      F#m      G
Zavija cesta za raj
     Bm     F#m   G     D
Vso noč bo dvigalo čudežno
Em                       G   A
Šla bova iz mesta nad nebesa
 
 
Solo kitara:
   Bm          F#m         G
e|----------------------------------------------------|
B|-0---10---10-----10---10-------10---10-----10-------|
G|--------7----6------6----6/7------7----7------7/9---|
D|----------------------------------------------------|
A|----------------------------------------------------|
E|----------------------------------------------------|
 
   Bm           F#m        G            D
e|-10\9-7-------9--7-------7\5-----------------------|
B|--------7-7-7------7-7-7-----5--------10----10-----|
G|--------------------------------7-7-7-----7----7---|
D|---------------------------------------------------|
A|---------------------------------------------------|
E|---------------------------------------------------|
 
    Em                               G                A
e|----------17-------17-------17-------17-------------------------|
B|-------15-------15-------15-------15-------15----15-17v---15\---|
G|-/16---------16-------16-------16-------16----16----------------|
D|----------------------------------------------------------------|
A|----------------------------------------------------------------|
E|----------------------------------------------------------------|
 
Ritem kitara:
   Bm        F#m      G
e|----------------------------------|
B|----------------------------------|
G|----------------------------------|
D|-4---------4--------5----5--------|
A|-2-----2-2-4--------5----5----5-5-|
E|-2-----2-2-2--------3----3----3-3-|
         ×××                    ×××
 
   Bm        F#m      G         D        Em           G    A
e|-------------------------------------------------------------------|
B|-------------------------------------------------------------------|
G|------------------------------7------------------------------------|
D|-4---------4--------5---------7--------2----2-------5----2-----2-2-|
A|-2-----2-2-4--------5-----5-5-5--------2----2-------5----0-----0-0-|
E|-2-----2-2-2--------3-----3-3-5--------0----0---0-2-3--------------|
         ×××                ×××                                  ×××
 
 
ZAKLJUČEK:
 
Solo kitara:
   Bm           F#m        G            D             Bm          F#m         G
e|-10\9-7-------9--7-------7\5---------------------------------------------------------------------------|
B|--------7-7-7------7-7-7-----5--------10----10---10-0---10---10-----10---10-------10---10-----10-------|
G|--------------------------------7-7-7-----7----7-----------7----6------6----6/7------7----7------7/9---|
D|-------------------------------------------------------------------------------------------------------|
A|-------------------------------------------------------------------------------------------------------|
E|-------------------------------------------------------------------------------------------------------|
 
   Bm           F#m        G            D
e|-10\9-7-------9--7-------7\5-----------------------|
B|--------7-7-7------7-7-7-----5--------10----10-----|
G|--------------------------------7-7-7-----7----7---|
D|---------------------------------------------------|
A|---------------------------------------------------|
E|---------------------------------------------------|
 
    Em                               G                F#m
e|----------17--------17-------17-------17-------17\--------10----9----9---|
B|-------15--------15-------15-------15-------15------10/12----12---10-----|
G|-/16----------16-------16-------16-------16------------------------------|
D|-------------------------------------------------------------------------|
A|-------------------------------------------------------------------------|
E|-------------------------------------------------------------------------|
 
Ritem kitara:
   Bm        F#m      G         D        Bm        F#m      G
e|------------------------------------------------------------------------|
B|------------------------------------------------------------------------|
G|------------------------------7-----------------------------------------|
D|-4---------4--------5---------7--------4---------4--------5----5--------|
A|-2-----2-2-4--------5-----5-5-5--------2-----2-2-4--------5----5----5-5-|
E|-2-----2-2-2--------3-----3-3-5--------2-----2-2-2--------3----3----3-3-|
         ×××                ×××                ×××                    ×××
 
   Bm        F#m      G         D        Em           G    F#m
e|---------------------------------------------------------------------|
B|---------------------------------------------------------------------|
G|------------------------------7--------------------------------------|
D|-4---------4--------5---------7--------2----2-------5----------------|
A|-2-----2-2-4--------5-----5-5-5--------2----2-------5----4-4-4-4-4-4-|
E|-2-----2-2-2--------3-----3-3-5--------0----0---0-2-3----2-2-2-2-2-2-|
         ×××                ×××                            ×××××××××××
 


trzalica bartrzalica bar

Dodaj komentar


Varnostna koda
Osveži

  Iskanje

config