tablatura akordi besedilo   Brezokoff (tab)

trzalica.com besedilo akordi tablature

Legenda ikon:


Pogoji uporabe.    

besedilo z akordi besedilo z akordi
tablature tablatura (tabulatura)
tablature tablatura za bas
tablature videolekcija

GuitarPro GutarPro (GP)
note Note (v PDF formatu)
sibelius Sibelius (SIB), itd.
..

 _______________________________________
|                                       |
| IZVAJALEC: ................ Siddharta |
| PESEM: .................... Brezokoff |
| ALBUM: ..................... Petrolea |
|_______________________________________|
|                                       |
|   Transkripcija: AliAs                |
|   Domača stran: Trzalica.com          |
|_______________________________________|
 
 
LEGENDA ZNAKOV:
M = MUTE
× = palm muted
X = Muffled
~ = let ring
h = hammer on
/ = slide up
\ = slide down
v = vibrated
^ = bend up za 1/4 tona
 
V verzih strumanje akordov navzgor.
Vsak refren je v drugi tonaliteti (glej tablaturo):
REFREN 1: F#m
REFREN 2: Bm nato F#m
REFREN 3: A
 
================================================================================================
www.trzalica.com    www.trzalica.com    www.trzalica.com    www.trzalica.com    www.trzalica.com
================================================================================================
 
VERZ 1:
 
        F#m               Bm          F#m
        Kaj se dobi s seštevanjem pravil
        F#m              Bm        F#m
        Kaj se dobi z delitvijo osnov
        F#m           Bm          A  E
        In ko veliko se nam prepoveeeee
        F#m           Bm         F#m
        Vsa ta filozofija ne zdrži
 
                 2x
   F#m     Bm      F#m               F#m     Bm      A       E       F#m     Bm      F#m
e|-2---2---2---2---2---2---2---2---|-2---2---2---2---0---0---0---0---2---2---2---2---2---2-2---|
B|-2---2---3---3---2---2---2---2---|-2---2---3---3---2---2---0---0---2---2---3---3---2---2-2---|
G|-2---2---4---4---2---2---2---2---|-2---2---4---4---2---2---1---1---2---2---4---4---2---2-2---|
D|-4---4---4---4---4---4---4---4---|-4---4---4---4---2---2---2---2---4---4---4---4---4---4-4---|
A|-4---4---2---2---4---4---4---4---|-4---4---2---2---0---0---2---2---4---4---2---2---4---4-4---|
E|---------------------------------|-----------------------------------------------------------|
     M   M   M   M   M   M   M   M     M   M   M   M   M   M   M   M   M   M   M   M   M     M
 
        F#m            Bm        F#m
        Silni viharji rušijo planet
        F#m             Bm          A  E
        Vse digitalno draži nam privid
        F#m              Bm       A  E
        In če mi to s koreni rešimoooo
                   F#m         Bm        F#m
        Naj si nabriti roboti belijo glave
                   D
        Medtem ko mi vsiiii raje
                                                    2x
   F#m     Bm      F#m               F#m     Bm      A       E
e|-2---2---2---2---2---2---2---2---|-2---2---2---2---0---0---0---0---|
B|-2---2---3---3---2---2---2---2---|-2---2---3---3---2---2---0---0---|
G|-2---2---4---4---2---2---2---2---|-2---2---4---4---2---2---1---1---|
D|-4---4---4---4---4---4---4---4---|-4---4---4---4---2---2---2---2---|
A|-4---4---2---2---4---4---4---4---|-4---4---2---2---0---0---2---2---|
E|---------------------------------|---------------------------------|
     M   M   M   M   M   M   M   M     M   M   M   M   M   M   M   M
 
   F#m     Bm      F#m             D
e|-2---2---2---2---2---2---2---2---2---2---2---2-2---|
B|-2---2---3---3---2---2---2---2---3---3---3---3-3---|
G|-2---2---4---4---2---2---2---2---2---2---2---2-2---|
D|-4---4---4---4---4---4---4---4---0---0---0---0-0---|
A|-4---4---2---2---4---4---4---4---0---0---0---0-0---|
E|---------------------------------------------------|
     M   M   M   M   M   M   M   M   M   M   M     M
 
 
REFREN 1:
 
        Zdaj lepo jadramo v centru vseh vetrov
        besnih viharnikov
        Lepo jadramo sredi teh vetrov
        in gledamo ta šov
 
                                       2x
e|----------------------------------------------------------------------------|-X-X-X-X-X-X--|
B|----------------------------------------------------------------------------|-X-X-X-X-X-X--|
G|------------------4---------------------------------------------------------|-X-X-X-X-X-X--|
D|-4------------4---4------------5/7---4------------4-------------------7/9---|-X-X-X-X-X-X--|
A|-4---4--4-4-4-4---2---5--5-5-5-5/7---4---4--4-4-4-4-------5--5--7-7-7-7/9---|-X-X-X-X-X-X--|
E|-2---2--2-2-2-2-------3--3-3-3-3/5---2---2--2-2-2-2---5^--3--3--5-5-5-5/7---|-X-X-X-X-X-X--|
     M ××××××××   M   M ××××××××     M   M ××××××××   M     ×××××××××××     M
 
 
VERZ 2:
 
        F#m      Bm     F#m         E
        Naj bo vsak do sebe plemenit
        F#m       Bm   A  E
        Čist in brez okoooov
        F#m    Bm    A         E
        Ne posredno komplicirati
        F#m     Bm   F#m
        Simple je dovolj
 
e|--------------------------------------------------------------------------------------------|
B|--------------------------------------------------------------------------------------------|
G|--------------------------------------------------------------------------------------------|
D|--------------------------------------------------2--0--------------------------------------|
A|----4--------------------4---------------------4--------4----4h5\2--------4-----------------|
E|-2-----0--5--2--------2-----0--7--5----0----2--------------------------2-----0--5--2--------|
 
 
        F#m      Bm     F#m         E
        Naj bo vsak do sebe plemenit
        F#m       Bm   A  E
        Čist in brez okoooov
        F#m    Bm    A         E
        Ne posredno komplicirati
        F#m     Bm   F#m
        Simple je dovolj
                                                    2x
   F#m     Bm      F#m         E     F#m     Bm      A       E         F#m     Bm      F#m
e|-2---2---2---2---2---2---2---0---|-2---2---2---2---0---0---0---0---|-2---2---2---2---2---2--2-2-2-2-2---|
B|-2---2---3---3---2---2---2---0---|-2---2---3---3---2---2---0---0---|-2---2---3---3---2---2--2-2-2-2-2---|
G|-2---2---4---4---2---2---2---1---|-2---2---4---4---2---2---1---1---|-2---2---4---4---2---2--2-2-2-2-2---|
D|-4---4---4---4---4---4---4---2---|-4---4---4---4---2---2---2---2---|-4---4---4---4---4---4--4-4-4-4-4---|
A|-4---4---2---2---4---4---4---2---|-4---4---2---2---0---0---2---2---|-4---4---2---2---4---4--4-4-4-4-4---|
E|---------------------------------|---------------------------------|------------------------------------|
     M   M   M   M   M   M   M   M     M   M   M   M   M   M   M   M     M   M   M   M   M              M
 
 
REFREN 2:
 
        Zdaj lepo jadramo v centru vseh vetrov
        besnih viharnikov
 
e|----------------------------------------------------------------------------|
B|----------------------------------------------------------------------------|
G|----------------------------------------------------------------------------|
D|-4------------4---2------------5/7---4------------4-------------------7/9---|
A|-2---2--2-2-2-2---2---3--3-3-3-3/5---2---2--2-2-2-2---5^--3--3--5-5-5-5/7---|
E|-2---2--2-2-2-2---0---3--3-3-3-3/5---2---2--2-2-2-2-------3--3--5-5-5-5/7---|
     M ××××××××   M   M ××××××××     M   M ××××××××   M     ×××××××××××     M
 
        Lepo jadramo sredi teh vetrov
 
e|----------------------------------------------------------------------------|
B|----------------------------------------------------------------------------|
G|----------------------------------------------------------------------------|
D|-4------------4---2------------5/7---4------------4-------------------------|
A|-2---2--2-2-2-2---2---3--3-3-3-3/5---2---2--2-2-2-2---5^--5--3--5--7--5v----|
E|-2---2--2-2-2-2---0---3--3-3-3-3/5---2---2--2-2-2-2-------------------------|
     M ××××××××   M   M ××××××××     M   M ××××××××   M                     M
 
e|----------------------------------------------------------------|
B|----------------------------------------------------------------|
G|------------------4---------------------------------------------|
D|-4------------4---4------------5/7---4------------4-------------|
A|-4---4--4-4-4-4---2---5--5-5-5-5/7---4---4--4-4-4-4-------------|
E|-2---2--2-2-2-2-------3--3-3-3-3/5---2---2--2-2-2-2---5^--5--3--|
     M ××××××××   M   M ××××××××     M   M ××××××××   M
 
 
VERZ 3:
 
                                  Dolgi.. ..se..
   G#m                                      E
e|-4---4---4---4---4---4---4-------4--------0--------|
B|-4---4---4---4---4---4---4-------4--------0--------|
G|-4---4---4---4---4---4---4-------4--------1--------|
D|-6---6---6---6---6---6---6-------6--------2--------|
A|-6---6---6---6---6---6---6-------6--------2--------|
E|------------------------------2--------------------|
     M   M   M   M   M   M           M        M
 
     G#m              E
        Dolgi vijaki se odvijejo
     G#m               C#m      B   F# G
        Nespremenjeni tu ostanemo
        G#m           C#m
        Ostre konice so poslali stran
                   G#m            C#m       E
        in vse persone zabite z njimi kaznoval
                 G#m            F#      G     G#m
        Kako prijetno je videt to, kar je nastal
 
   G#m                     C#m     B       F#  G   G#m     C#m
e|-4---4---4---4---4---4---4---4---2---2---2---3---4---4---4---4----------|
B|-4---4---4---4---4---4---5---5---4---4---2---3---4---4---5---5----------|
G|-4---4---4---4---4---4---6---6---4---4---3---4---4---4---6---6----------|
D|-6---6---6---6---6---6---6---6---4---4---4---5---6---6---6---6----------|
A|-6---6---6---6---6---6---4---4---2---2---4---5---6---6---4---4----------|
E|------------------------------------------------------------------------|
     M   M   M   M   M   M   M   M   M   M   M   M   M   M   M   M
 
   G#m     C#m     E             G#m           F#    G     G#m
e|-4---4---4---4---0---0---0-----4-4-4-4-4-4-4------------------|
B|-4---4---5---5---0---0---0-----4-4-4-4-4-4-4------------------|
G|-4---4---6---6---1---1---1-----4-4-4-4-4-4-4------------------|
D|-6---6---6---6---2---2---2-----6-6-6-6-6-6-6----4-----5-------|
A|-6---6---4---4---2---2---2-----6-6-6-6-6-6-6------------------|
E|---------------------------------------------2-----3-----4----|
     M   M   M   M   M   M   M                               M
 
 
REFREN 3:
 
        Zdaj lepo jadramo v centru vseh vetrov
        besnih viharnikov
 
e|----------------------------------------------------------------------------|
B|----------------------------------------------------------------------------|
G|----------------------------------------------------------------------------|
D|-2------------2---7------------3/5---2------------2-------------------5/7---|
A|-0---0--0-0-0-0---5---1--1-1-1-1/3---0---0--0-0-0-0---3^--1--1--3-3-3-3/5---|
E|-0---0--0-0-0-0---5---1--1-1-1-1/3---0---0--0-0-0-0-------1--1--3-3-3-3/5---|
     M ××××××××   M   M ××××××××     M   M ××××××××   M     ×××××××××××     M
 
        Lepo jadramo sredi teh vetrov
 
e|----------------------------------------------------------------------------|
B|----------------------------------------------------------------------------|
G|----------------------------------------------------------------------------|
D|-2------------2---7------------3/5---2------------2-------------------------|
A|-0---0--0-0-0-0---5---1--1-1-1-1/3---0---0--0-0-0-0---3^--3--1--3--5--3v----|
E|-0---0--0-0-0-0---5---1--1-1-1-1/3---0---0--0-0-0-0-------------------------|
     M ××××××××   M   M ××××××××     M   M ××××××××   M
 
        Mi lepo jadramo sredi teh vetroooov
 
e|----------------------------------------------------|
B|----------------------------------------------------|
G|----------------------------------------------------|
D|-2------------2---7------------3/5-4----------------|
A|-0---0--0-0-0-0---5---1--1-1-1-1/3-4----------------|
E|-0---0--0-0-0-0---5---1--1-1-1-1/3-2----------------|
     M ××××××××   M   M ××××××××      ~~~~~~~~~~~~~~~~
 
 
BRIDGE:
 
     F#m         G                        A
        Mi lepo jadramo v centru vseh vetrov
         Bm
        besnih viharnikov
     C#m      F#m                  G#m  E
        Lepo jadramo sredi teh vetrooooooov
 
        F#m  G  A  Bm  C#m  F#m  G#m  E
 
         F#m       G                        A
        Zdaj lepo jadramo v centru vseh vetrov
         Bm
        besnih viharnikov
     C#m      D                    E
        Lepo jadramo sredi teh vetroooov
 
 
OUTRO:
 
        F#m
        Tu lahko
        Bm         Em        C              Bm
        Zdaj lepo jadramo v centru vseh vetrov
      Bm      Em       C           Bm
        Lepo jadramo sredi teh vetrov
 
                                             2x
   F#m     Bm              Em      C       Bm
e|-------|-----------------------------------------------------------------------|
B|-------|-----------------------------------------------------------------------|
G|-------|-----------------------------------------------------------------------|
D|-4-----|-4-4-4-4-4-4-4-4-2-2-2-2-5-5-5-5-4-4-4-4-4-4-4-4-----------------------|
A|-4-----|-2-2-2-2-2-2-2-2-2-2-2-2-3-3-3-3-2-2-2-2-2-2-2-2-5^--5--3--5--7--5v----|
E|-2-----|-2-2-2-2-2-2-2-2-0-0-0-0-3-3-3-3-2-2-2-2-2-2-2-2-----------------------|
     M
 
        Bm       C                    D
        Mi lepo jadramo sredi teh vetrov
         Em
        besnih viharnikov
     F#m    G                      A     B   B  F#m  A  D  C     B
        Lepo jadramo sredi teh vetrooooooov
 
   Bm              C               D               Em
e|-----------------------------------------------------------------|
B|-----------------------------------------------------------------|
G|-----------------------------------------------------------------|
D|-4-4-4-4-4-4-4-4-5-5-5-5-5-5-5-5-7-7-7-7-7-7-7-7-2-2-2-2-2-2-2-2-|
A|-2-2-2-2-2-2-2-2-3-3-3-3-3-3-3-3-5-5-5-5-5-5-5-5-2-2-2-2-2-2-2-2-|
E|-2-2-2-2-2-2-2-2-3-3-3-3-3-3-3-3-5-5-5-5-5-5-5-5-0-0-0-0-0-0-0-0-|
 
   F#m             G               A               B
e|------------------------------------------------------------------|
B|------------------------------------------------------------------|
G|---------------------------------------------------------4444-----|
D|-4-4-4-4-4-4-4-4-5-5-5-5-5-5-5-5---------22225555------------4444-|
A|-4-4-4-4-4-4-4-4-5-5-5-5-5-5-5-5-00003333--------2222-------------|
E|-2-2-2-2-2-2-2-2-3-3-3-3-3-3-3-3---------------------2222---------|
 
   B   F#m A   D   C           B
e|------------------------------------|
B|------------------------------------|
G|------------------------------------|
D|-4---4---7---7---5-----------4------|
A|-2---4---7---5---3-----------2------|
E|-2---2---5---5---3-----------2------|
                                    M
 

trzalica posnetek bar

trzalica bar
 

Dodaj komentar


Varnostna koda
Osveži

  Iskanje

config