tablatura akordi besedilo   Ciklon orka (tab)

trzalica.com besedilo akordi tablature

Legenda ikon:


Pogoji uporabe.    

besedilo z akordi besedilo z akordi
tablature tablatura (tabulatura)
tablature tablatura za bas
tablature videolekcija

GuitarPro GutarPro (GP)
note Note (v PDF formatu)
sibelius Sibelius (SIB), itd.
..

 _______________________________________
|                                       |
| IZVAJALEC: ................ Siddharta |
| PESEM: .................. Ciklon orka |
| ALBUM: .......................... Rh- |
|_______________________________________|
|                                       |
|   Transkripcija: AliAs                |
|   Domača stran: Trzalica.com          |
|_______________________________________|
 
 
LEGENDA:
M = MUTE
× = palm muted
~ = let ring
 
================================================================================================
www.trzalica.com    www.trzalica.com    www.trzalica.com    www.trzalica.com    www.trzalica.com
================================================================================================
 
VERZ 1:  (00:01 - 00:57)
 
e|----------------------------------------------------|
B|----------------------------------------------------|
G|----------------------------------------------------|
D|-6--6------6-----6--6------6-----6--6------6-----6--|
A|-------4-6---4-6-------4-6---4-6-------4-6---4-6----|
E|----------------------------------------------------|
     M   ×××××××××   M   ×××××××××   M               M
 
        Ko ne dohajam vsega tega hitenja okoli nas,
        se le sprašujem kam to vodi, kje je past.
        Ko le dojamem, da se vse bolj potimo za isti kos,
        nadomestila pa za to nikdar ne bo.
 
e|--------------------------------------------|
B|--------------------------------------------|
G|--------------------------------------------|
D|-6-----6--------6-----6--------6------------|
A|----------7--7-----------7--7---------------|
E|-4-4-4-4--0--0--4-4-4-4--0--0--4------------|
     ×××      M     ×××      M    ~~~~~~~~~~~M
 
        Ko me zavaja vsakodnevna izdaja,
        na vrhu vsa poštenost kar zbledi. Kaj naj naredim?
        In ko ne dohajam več vse te galame in pritiska vsega name,
        se na sredini najde mesto le zame, zame, zame, zaaaaaaaa...
 
 ..le zaaaameeee,     zaaaameeee,     zaaaameeee,     zaaaaaaaaaaaaaaaaaaa...
e|------------------------------------------------------------------------------------|
B|------------------------------------------------------------------------------------|
G|------------------------------------------------------------------------------------|
D|-8----------------------------------------------------------------------------------|
A|-6------------7--7------------7--7------------7--7------4-6-----4-6-----6-8-----6-8-|
E|----4-6-4-6-4-0--0--4-6-4-6-4-0--0--4-6-4-6-4-0--0--4-4-----4-4-----6-6-----6-6-----|
      ×××××××××   M   ×××××××××   M   ×××××××××   M   ×××××××××××××××××××××××××××××××
 
 
REFREN 1:  (00:57 - 01:34)
 
      D#m                B
        Na sredini se vesolje odpre,
      C#                  A#
        na sredini lahko delam vse.
      D#m               B                     C#
        Ne obremenjuje me kaj imam in kaj poznam,
                    A#        F#   B               C#   A#            D#m
        okoli sebe naj naj naaaaaaaaaajdem in spoznam vse kar rabim tam.
 
   D#m                      B
e|---------------------------------------------------|
B|---------------------------------------------------|
G|---------------------------------------------------|
D|-8----8----8--8--8--8--8--9----9----9--9--9--9--9--|         \
A|-6--6-6--6-6--6--6--6--6--9--9-9--9-9--9--9--9--9--|          \
E|-6--6-6--6-6--6--6--6--6--7--7-7--7-7--7--7--7--7--|           \
      ×    ×      M            ×    ×      M                      \__ 2x
                                                                  /
   C#                                A#                          /
e|-----------------------------------------------------------|  /
B|-----------------------------------------------------------|
G|-----------------------------------------------------------|
D|-11-----11-----11--11--11--11--11--8----8----8--8--8--8--8-|
A|-11--11-11--11-11--11--11--11--11--8--8-8--8-8--8--8--8--8-|
E|-9---9--9---9--9---9---9---9---9---6--6-6--6-6--6--6--6--6-|
       ×      ×         M               ×    ×      M
 
   F#                             B                        C#                A#     D#m
e|--------------------------------------------------------------------------------------------------------|
B|--------------------------------------------------------------------------------------------------------|
G|--------------------------------------------------------------------------------------------------------|
D|-11----11----11----11----11-11--9----9----9----9----9-9--11-----11-----11--8----------------------------|
A|-9---9-9---9-9---9-9---9-9--9---9--9-9--9-9--9-9--9-9-9--11--11-11--11-11--8------6-6-----6-----6-6-----|
E|-9---9-9---9-9---9-9---9-9--9---7--7-7--7-7--7-7--7-7-7--9---9--9---9--9---6----------4-6---4-6---6-----|
       ×     ×     ×     ×           ×    ×    ×    ×          ×      ×       ~~~~~~    ×××××××××    ~~~~~
 
 
VERZ 2:  (01:34 - 02:28)
 
        Se ne nadejam, da me ta pot ponese do čudeža,
        a morda od tod se vidi najlepši del neba.
        In kje so meje za katerimi več ne uživaš sanj?
        Verjamem da jih ni, ustvariš te si sam.
 
e|--------------------------------------------|
B|--------------------------------------------|
G|--------------------------------------------|
D|-6-----6--------6-----6--------6------------|
A|----------7--7-----------7--7---------------|
E|-4-4-4-4--0--0--4-4-4-4--0--0--4------------|
     ×××      M     ×××      M    ~~~~~~~~~~~M
 
        In ko seštejejo se zlobne ideje,
        ostane vedno isti rezultat, ta vodi v prepad.
        In ko na samem zamižim in ujamem svoje misli,
        ko dojamem da na sredini pravo mesto je zame, zame, zame, zaaaaaaaa...
 
 ..le zaaaameeee,     zaaaameeee,     zaaaameeee,     zaaaaaaaaaaaaaaaaaaa...
e|------------------------------------------------------------------------------------|
B|------------------------------------------------------------------------------------|
G|------------------------------------------------------------------------------------|
D|-8----------------------------------------------------------------------------------|
A|-6------------7--7------------7--7------------7--7------4-6-----4-6-----6-8-----6-8-|
E|----4-6-4-6-4-0--0--4-6-4-6-4-0--0--4-6-4-6-4-0--0--4-4-----4-4-----6-6-----6-6-----|
      ×××××××××   M   ×××××××××   M   ×××××××××   M   ×××××××××××××××××××××××××××××××
 
 
REFREN 2:  (02:28 - 03:04)
 
      D#m                B
        Na sredini se vesolje odpre,
      C#                  A#
        na sredini lahko delam vse.
      D#m               B                     C#
        Ne obremenjuje me kaj imam in kaj poznam,
                    A#        F#   B               C#   A#            D#m
        okoli sebe naj naj naaaaaaaaaajdem in spoznam vse kar rabim tam.
 
   D#m                      B
e|---------------------------------------------------|
B|---------------------------------------------------|
G|---------------------------------------------------|
D|-8----8----8--8--8--8--8--9----9----9--9--9--9--9--|         \
A|-6--6-6--6-6--6--6--6--6--9--9-9--9-9--9--9--9--9--|          \
E|-6--6-6--6-6--6--6--6--6--7--7-7--7-7--7--7--7--7--|           \
      ×    ×      M            ×    ×      M                      \__ 2x
                                                                  /
   C#                                A#                          /
e|-----------------------------------------------------------|  /
B|-----------------------------------------------------------|
G|-----------------------------------------------------------|
D|-11-----11-----11--11--11--11--11--8----8----8--8--8--8--8-|
A|-11--11-11--11-11--11--11--11--11--8--8-8--8-8--8--8--8--8-|
E|-9---9--9---9--9---9---9---9---9---6--6-6--6-6--6--6--6--6-|
       ×      ×         M               ×    ×      M
 
   F#                             B                        C#                A#     D#m
e|--------------------------------------------------------------------------------------------------------|
B|--------------------------------------------------------------------------------------------------------|
G|--------------------------------------------------------------------------------------------------------|
D|-11----11----11----11----11-11--9----9----9----9----9-9--11-----11-----11--8----------------------------|
A|-9---9-9---9-9---9-9---9-9--9---9--9-9--9-9--9-9--9-9-9--11--11-11--11-11--8------6-6-----6-----6-6-----|
E|-9---9-9---9-9---9-9---9-9--9---7--7-7--7-7--7-7--7-7-7--9---9--9---9--9---6----------4-6---4-6---6-----|
       ×     ×     ×     ×           ×    ×    ×    ×          ×      ×       ~~~~~~    ×××××××××    ~~~~~
 
BRIDGE:  (03:05 - 04:05)
 
        D#m   B   C#   A#
 
        D#m                              B
        Ko ne obstajajo zmage, porazi in en sam cilj,
        C#                                     A#
        ko ne obstaja več tisti moment, ko ne veš kaj bi.
 
   D#m                    B                    C#                     A#
e|-----------------------------------------------------------------------------------------|
B|-----------------------------------------------------------------------------------------|
G|-----------------------------------------------------------------------------------------|
D|-9---9---9-9-8--8--8----9---9---9-9-8---8----8---8---8-8-6--6--6----4---4---4-4-3---3----|
A|-----------------------------------------------------------------------------------------|
E|-----------------------------------------------------------------------------------------|
 
        D#m                                  B
        Ko se zavedamo, da vse kar sveti se ni zlato,
        G#m                            A#
        le na ta način nam mnogo lažjeee bo.
 
   D#m            B              G#m            A#
e|---------------------------------------------------------------|
B|---------------------------------------------------------------|
G|---------------------------------------------------------------|
D|-9--9--8--------9--9--8--------8--8--6--------4--4--3----------|
A|---------------------------------------------------------------|
E|---------------------------------------------------------------|
 
         B            C#                D#m          A#
        Na sredini sijaj na sredini je moč (me ne zanima več drugod).
         B            C#                D#m            A#
        Na sredini sijaj na sredini je moč (le tu gre mimo vsaka pot).
 
   B            C#           D#m         A#
e|----------------------------------------------------|
B|----------------------------------------------------|
G|----------------------------------------------------|  --2x
D|-4---4--------6---6--------8---8-------3---3--------|
A|----------------------------------------------------|
E|----------------------------------------------------|
 
         G#m          A#                D#m               A#                G#m
        Na sredini sijaj na sredini je moč, na sredini sijaj na sredini je moč.
                A#    F#
        In jaz rabim to, in jaz rabim to, in jaz rabim to.
 
   G#m      A#       D#m    A#       G#m      A#         F#
e|----------------------------------------------------------------------------------------------|
B|----------------------------------------------------------------------------------------------|
G|----------------------------------------------------------------------------------------------|
D|-4--------6--------8------3--------4--------6----------9---8--6--4---6--8--9---8--6--4---6--8-|
A|----------------------------------------------------------------------------------------------|
E|----------------------------------------------------------------------------------------------|
 
 
REFREN 3:  (04:06 - 04:41)
 
      D#m                B
        Na sredini se vesolje odpre,
      C#                  A#
        na sredini lahko delam vse.
      D#m               B                     C#
        Ne obremenjuje me kaj imam in kaj poznam,
                    A#        F#   B               C#   A#            D#m
        okoli sebe naj naj naaaaaaaaaajdem in spoznam vse kar rabim tam.
 
   D#m                      B
e|---------------------------------------------------|
B|---------------------------------------------------|
G|---------------------------------------------------|
D|-8----8----8--8--8--8--8--9----9----9--9--9--9--9--|         \
A|-6--6-6--6-6--6--6--6--6--9--9-9--9-9--9--9--9--9--|          \
E|-6--6-6--6-6--6--6--6--6--7--7-7--7-7--7--7--7--7--|           \
      ×    ×      M            ×    ×      M                      \__ 2x
                                                                  /
   C#                                A#                          /
e|-----------------------------------------------------------|  /
B|-----------------------------------------------------------|
G|-----------------------------------------------------------|
D|-11-----11-----11--11--11--11--11--8----8----8--8--8--8--8-|
A|-11--11-11--11-11--11--11--11--11--8--8-8--8-8--8--8--8--8-|
E|-9---9--9---9--9---9---9---9---9---6--6-6--6-6--6--6--6--6-|
       ×      ×         M               ×    ×      M
 
   F#                             B                        C#                A#              D#m
e|---------------------------------------------------------------------------------------------------|
B|---------------------------------------------------------------------------------------------------|
G|---------------------------------------------------------------------------------------------------|
D|-11----11----11----11----11-11--9----9----9----9----9-9--11-----11-----11--8-8-----8-----8---------|
A|-9---9-9---9-9---9-9---9-9--9---9--9-9--9-9--9-9--9-9-9--11--11-11--11-11------6-8---6-8---6-------|
E|-9---9-9---9-9---9-9---9-9--9---7--7-7--7-7--7-7--7-7-7--9---9--9---9--9-------------------6-------|
       ×     ×     ×     ×           ×    ×    ×    ×          ×      ×          ×××   ×××    ~~~~~~M
 

trzalica posnetek bar

trzalica bar
 

Dodaj komentar


Varnostna koda
Osveži

  Iskanje

config