tablatura akordi besedilo   Disco deluxe (tab) v1

trzalica.com besedilo akordi tablature

Legenda ikon:


Pogoji uporabe.    

besedilo z akordi besedilo z akordi
tablature tablatura (tabulatura)
tablature tablatura za bas
tablature videolekcija

GuitarPro GutarPro (GP)
note Note (v PDF formatu)
sibelius Sibelius (SIB), itd.
..

Vse verzije te pesmi:      Disco deluxe (tab) v1       Disco deluxe (tab) v2

trzalica bar

 Izvajalec: ..................... Siddharta
 Skladba: ....................... Disco deluxe
 Transkripcijo izdelal .......... zheetko
 Domaèa stran transkripcije ..... www.trzalica.com

================================================================================

Siddharta - Disco deluxe (bas solo)

------------------------------------------------------------------------------
------------------------------------------------------------------------------
------------------------------------------------------------------------------
---------------9------9-------------------------------------------------------
-----7-9/11v----11-9----11-7/9---------9-11-12-11-9------9----9/11-9-7---7-7--
--/9---------------------------9--9-12--------------9-12---12----------9------
                                                                              

------------------------------------------------------------------------------
------------------------------------------------------------------------------
---------------------------8----8/9-------------------------------------------
-----------9---9-11-11--11---11-----9/11p9------11-9-----------------------9--
------9/11---11----------------------------11-9------9h11p9h11-7------9-11----
-9v--------------------------------------------------------------9-12---------
                                                                              

---------------------------------------------------------------------------
----12-9----9--------------------------------------------------------------
---------12---11-9---------------------------------------------------------
-11-----------------11v----------------------------------------------------
---------------------------------------------------------------------------
---------------------------------------------------------------------------

 


trzalica bartrzalica bar

Dodaj komentar


Varnostna koda
Osveži

  Iskanje

config