tablatura akordi besedilo   Et tu (tab) v1

trzalica.com besedilo akordi tablature

Legenda ikon:


Pogoji uporabe.    

besedilo z akordi besedilo z akordi
tablature tablatura (tabulatura)
tablature tablatura za bas
tablature videolekcija

GuitarPro GutarPro (GP)
note Note (v PDF formatu)
sibelius Sibelius (SIB), itd.
..

Vse verzije te pesmi:      Et tu (tab) v1       Et tu (tab) v2       Et tu (bas)

trzalica bar

 Izvajalec: ..................... Siddharta
 Skladba: ....................... Et tu
 Transkripcijo izdelal .......... Ta e-poštni naslov je zaščiten proti smetenju. Potrebujete Javascript za pogled.
 Domača stran transkripcije ..... www.trzalica.com

 POSODOBIL: AliAs, 30.3.2007

================================================================================

 Siddharta - Et tu

verz1:
E|----------------------------------|
B|----------------------------------|
G|-7h8p7p5---7h8p7p5----------------| 3x
D|----------------------------------|
A|----------------------------------|
E|----------------------------------|


ref:
   A#5  D5   D#5  F5
E|---------------------|
B|---------------------|
G|---------------------| 4x
D|-3----7----8----3----|
A|-1----5----6----3----|
E|-1----5----6----1----|


prehod I:
D|------------------------------------------------------------------------------|
A|--------------4------------------------------------4-----8----8--6------------|
F|---5----6-5-6----6--5h6p5-3----------3-3-5h6p5-3-5---5-5----5-----------------|
C|-3----3-----------------------------------------------------------------------|
G|------------------------------------------------------------------------------|
D|------------------------------------------------------------------------------|

Spremljava za prehod I:
   A#5     D#5     C5     C#5  D#5  F5
E|--------------------------------------------|
B|--------------------------------------------|
G|--------------------------------------------|
D|-3-------8-------5------6----8----3---------|
A|-3-------6-------3------4----6----3---------|
E|-1-------6-------3------4----6----1---------|

prehod II:
E|-----------|
B|-----------|
G|---3-5br---| 4x
D|-5---------|
A|-----------|
E|-----------|

E|------------|
B|------------|
G|-8-7h8p7p5--|
D|------------|
A|------------|
E|------------|

E|-------------|
B|-------------|
G|-7/8\7-5-7/8-|
D|-------------|
A|-------------|
E|-------------|

E|-----------|
B|---8-9br---|
G|-8---------| 3x
D|-----------|
A|-----------|
E|-----------|

E|-8-9-8-------------------------|
B|-------9-8-8/9\8-----------4/8-|
G|-----------------10------------|
D|-------------------------------|
A|-------------------------------|
E|-------------------------------|

Spremljava za prehod II je ista kot pri verzu.

(verz1) 2x

(ref) 2x

bridge:
   A#5         D5          D#5         F5
E|------------------------------------------------|
B|------------------------------------------------|
G|------------------------------------------------|
D|-3-3---------7-7---------8-8---------3-3--------|
A|-1-1---------5-5---------6-6---------3-3--------|
E|-1-1---------5-5---------6-6---------1-1--------|

   A#5         D5          D#5         F5
E|------------------------------------------------|
B|------------------------------------------------|
G|------------------------------------------------|
D|-3-3--3-3----7-7--7-7----8-8--8-8----3-3--3-3---|
A|-1-1--1-1----5-5--5-5----6-6--6-6----3-3--3-3---|
E|-1-1--1-1----5-5--5-5----6-6--6-6----1-1--1-1---|

   A#5             D5              D#5             F5
E|-----------------------------------------------------------------|
B|-----------------------------------------------------------------|
G|-----------------------------------------------------------------| 2x
D|-3-3-3-3-3-3-3-3-7-7-7-7-7-7-7-7-8-8-8-8-8-8-8-8-3-3-3-3-3-3-3-3-|
A|-1-1-1-1-1-1-1-1-5-5-5-5-5-5-5-5-6-6-6-6-6-6-6-6-3-3-3-3-3-3-3-3-|
E|-1-1-1-1-1-1-1-1-5-5-5-5-5-5-5-5-6-6-6-6-6-6-6-6-1-1-1-1-1-1-1-1-|
 [--------------------------------m--------------------------------]

(ref) 4x

(Spremljava za prehod I)




Ta e-poštni naslov je zaščiten proti smetenju. Potrebujete Javascript za pogled.


trzalica bartrzalica bar

Dodaj komentar


Varnostna koda
Osveži

  Iskanje

config