tablatura akordi besedilo   Et tu (tab) v2

trzalica.com besedilo akordi tablature

Legenda ikon:


Pogoji uporabe.    

besedilo z akordi besedilo z akordi
tablature tablatura (tabulatura)
tablature tablatura za bas
tablature videolekcija

GuitarPro GutarPro (GP)
note Note (v PDF formatu)
sibelius Sibelius (SIB), itd.
..

Vse verzije te pesmi:      Et tu (tab) v1       Et tu (tab) v2       Et tu (bas)

trzalica bar

 _______________________________________
|                                       |
| IZVAJALEC: ................ Siddharta |
| PESEM: ........................ Et tu |
| ALBUM: .......................... Rh- |
|_______________________________________|
|                                       |
|   Transkripcija: AliAs                |
|   Domača stran: Trzalica.com          |
|_______________________________________|
 
================================================================================================
 
LEGENDA:
M = MUTE
× = palm muted
~ = let ring
p = pull off
h = hammer on
/ = slide up
\ = slide down
br = bend up nato popusti bend (za 1/2 tona)
 
UGLASITEV: D G C F A D (en ton nižje)
 
TRANSPONACIJA AKORDOV:
 
D G C F A D uglasitev ------------ standardna uglasitev 
 (navidezni prijemi)                  (pravi akordi)
 
                C   ---------------->   A#
                Em  ---------------->   Dm
                F   ---------------->   Eb
                G   ---------------->   F
                Gm  ---------------->   Fm
                Eb  ---------------->   Db
                Dm  ---------------->   Cm
                Bb  ---------------->   G#
 
Tabulatura in (navidezni) akordi v besedilu, so napisani za en ton nižjo uglasitev - D G C F A D.
Za igranje po tabulaturi morate kitaro torej uglasiti za en ton nižje, če pa boste igrali samo
akorde na standardni uglasitvi, pa glejte zgornjo tabelo, ki prikazuje katere akorde je treba
prijeti namesto navideznih.
 
================================================================================================
www.trzalica.com    www.trzalica.com    www.trzalica.com    www.trzalica.com    www.trzalica.com
================================================================================================
 
VERZ 1:  (00:06 - 01:06)
 
D|---------------------|
A|---------------------|
F|-9h10p9p7--9h10p9p7--|  --3x
C|---------------------|
G|---------------------|
D|---------------------|
 
      Dm      Bb         Dm    Bb
        Neprijetna je oddaljenost od tu,
      Dm     Bb        Dm  Bb
        do zaupanja v te     ljudi,
      Dm      Bb         Dm      Bb
        za katere tudi ubijal, ubijal bi,
         Dm     Bb     Eb     F     Gm
        dokler jim sovražnik ne za.....spi.
 
      Dm          Bb            Dm    Bb
        Vse kar smo imeli je izginilo,
            Dm    Bb                Dm  Bb
        in ti nož v hrbet zdaj nam bi  zasadil,
      Dm       Bb         Dm      Bb       Dm    Bb    Eb    F
        krivo vero si nekje pobral, si nekje pobral, vse nas izdal.
      Dm     Bb              Dm        Bb
        Zdaj od mene kradeš denar za te živali,
      Dm      Bb           Dm   Bb
        na obrazu tvojem vrag, ki bi mi
      Dm         Bb         Dm     Bb     Dm    Bb
        spustil metek med oči za ime heroja,
             Eb         F        Gm
        to ime, ki ni vredno nikjer.
 
 
REFREN 1:  (01:07 - 01:54)
 
   C        Em       F        G
D|-------------------------------------|
A|-------------------------------------|
F|-------------------------------------|  --4x
C|-5--------2--------3--------5--------|
G|-3--------2--------3--------5--------|
D|-3--------0--------1--------3--------|
    ~~~~~~~~ ~~~~~~~~ ~~~~~~~~ ~~~~~~~~
 
             C Em  F     G          C
        In toooooooooo grize me naprej,
                  Em          F
        v zmago zrem a ti ob men,
        G            C Em   F     G          C
        a naslednji daaaaaaaaan vse je to zaman,
              Em        F  G        (Gm   F   Dm   Eb  F  Gm)-solo
        ko boli o tebi ni niti sleduuuuu.
 
   Gm       F        Dm       Eb   F    Gm
D|----------------------------------------------------|
A|----------------------------------------------------|
F|----------------------------------------------------|  --riff med solom
C|-5--------3--------7--------8----10---12------------|
G|-5--------3--------5--------6----8----10------------|
D|-3--------1--------5--------6----8----10------------|
    ~~~~~~~~ ~~~~~~~~ ~~~~~~~~ ~~~~ ~~~~  ~~~~~~~~~~~~
 
   Gm           F                 Dm                 Eb    F         Gm
D|--------------------------------------------------------------------------------|
A|--------------6------------------------------------6-----10----10--8------------|
F|---7----8-7-8----8--7h8p7-5----------5-5-7h8p7-5-7---7-7-----7------------------|
C|-5----5-------------------------------------------------------------------------|
G|--------------------------------------------------------------------------------|
D|--------------------------------------------------------------------------------|
 
 
VERZ 2:  (01:55 - 02:53)
 
Nadaljevanje sola iz refrena:
D|-----------------------------------------------------|
A|-----------------------------------------------------|
F|------7br-------7br-------7br-------7br-10-9h10p9p7--|
C|-7-10------7-10------7-10------7-10------------------|
G|-----------------------------------------------------|
D|-----------------------------------------------------|
 
D|-------------------------------------10--11--10------------------------------------|
A|----10-11br-----10-11br-----10-11br--------------11--10--10h11p10\8--------6/10----|
F|-10----------10----------10--------------------------------------------------------|
C|-----------------------------------------------------------------------------------|
G|-----------------------------------------------------------------------------------|
D|-----------------------------------------------------------------------------------|
 
D|---------------------|
A|---------------------|
F|-9h10p9p7--9h10p9p7--|  --2x
C|---------------------|
G|---------------------|
D|---------------------|
 
      Dm       Bb          Dm    Bb
        Vsaka moja žalost tebi da sijaj,
      Dm         Bb        Dm       Bb
        v meni smeh a ti oči rosiš naskrivaj
      Dm      Bb            Dm       Bb
        vse prekleto bi na mene zlil,
               Dm    Bb    Eb        F
        bi na mene zlil ponos svoj krepil.
 
      Dm       Bb         Dm     Bb
        Brez oblike si obsojen na obup,
      Dm        Bb         Dm  Bb
        v moje žile se zažreš   kakor strup,
      Dm      Bb          Dm      Bb
        naše sanje bi prodal za ime heroja,
             Eb         F        Gm
        to ime ki ni vredno nikjer.
 
 
REFREN 2:  (02:54 - 03:11)
 
   C        Em       F        G
D|-------------------------------------|
A|-------------------------------------|
F|-------------------------------------|  --2x
C|-5--------2--------3--------5--------|
G|-3--------2--------3--------5--------|
D|-3--------0--------1--------3--------|
    ~~~~~~~~ ~~~~~~~~ ~~~~~~~~ ~~~~~~~~
 
             C Em  F     G          C
        In toooooooooo grize me naprej,
                  Em          F   G
        v zmago zrem a ti ob men, a na koncu...
 
 
BRIDGE:  (03:11 - 03:46)
 
   C            Em           F            G
D|-----------------------------------------------------|
A|-----------------------------------------------------|
F|-----------------------------------------------------|
C|-5-5----------2-2----------3-3----------5-5----------|
G|-3-3----------2-2----------3-3----------5-5----------|
D|-3-3----------0-0----------1-1----------3-3----------|
      M            M            M            M
 
      C                    Em        F    G
        Vsaka moja žalost tebi da sijaj,
 
   C            Em           F            G
D|-----------------------------------------------------|
A|-----------------------------------------------------|
F|-----------------------------------------------------|
C|-5-5---5-5----2-2---2-2----3-3---3-3----5-5---5-5----|
G|-3-3---3-3----2-2---2-2----3-3---3-3----5-5---5-5----|
D|-3-3---3-3----0-0---0-0----1-1---1-1----3-3---3-3----|
      M     M      M     M      M     M      M     M
 
      C                    Em          F    G
        v meni smeh a ti oči rosiš zakaj
 
   C               Em              F               G
D|-----------------------------------------------------------------|
A|-----------------------------------------------------------------|
F|-----------------------------------------------------------------|  --2x
C|-----------------------------------------------------------------|
G|-3-3-3-3-3-3-3-3-2-2-2-2-2-2-2-2-3-3-3-3-3-3-3-3-5-5-5-5-5-5-5-5-|
D|-3-3-3-3-3-3-3-3-0-0-0-0-0-0-0-0-1-1-1-1-1-1-1-1-3-3-3-3-3-3-3-3-|
   ×××××××××××××××××××××××××××××××××××××××××××××××××××××××××××××××
 
      C                     Em            F
        vse prekleto bi na mene zlil in žal,
                            G             C
        vse prekleto bi na mene zlil in žal
                           Em          F  G
        naše sanje in življenja bi prodaaaal
 
 
REFREN 3:  (03:46 - 01:34)
 
   C        Em       F        G
D|-------------------------------------|
A|-------------------------------------|
F|-------------------------------------|  --4x
C|-5--------2--------3--------5--------|
G|-3--------2--------3--------5--------|
D|-3--------0--------1--------3--------|
    ~~~~~~~~ ~~~~~~~~ ~~~~~~~~ ~~~~~~~~
 
             C Em  F     G          C
        In toooooooooo grize me naprej,
                  Em          F
        v zmago zrem a ti ob men,
        G            C Em   F     G          C
        a naslednji daaaaaaaaan vse je to zaman,
              Em        F  G         Gm   F   Dm   Eb  F  Gm
        ko boli o tebi ni niti sleduuuuu.
 
   Gm       F        Dm       Eb   F    Gm
D|----------------------------------------------------|
A|----------------------------------------------------|
F|----------------------------------------------------|
C|-5--------3--------7--------8----10---12------------|
G|-5--------3--------5--------6----8----10------------|
D|-3--------1--------5--------6----8----10------------|
    ~~~~~~~~ ~~~~~~~~ ~~~~~~~~ ~~~~ ~~~~  ~~~~~~~~~~~~
 

trzalica bartrzalica bar

Dodaj komentar


Varnostna koda
Osveži

  Iskanje

config