tablatura akordi besedilo   Etna (tab)

trzalica.com besedilo akordi tablature

Legenda ikon:


Pogoji uporabe.    

besedilo z akordi besedilo z akordi
tablature tablatura (tabulatura)
tablature tablatura za bas
tablature videolekcija

GuitarPro GutarPro (GP)
note Note (v PDF formatu)
sibelius Sibelius (SIB), itd.
..

 _______________________________________
|                                       |
| IZVAJALEC: ................ Siddharta |
| PESEM: ......................... Etna |
| ALBUM: .......................... Rh- |
|_______________________________________|
|                                       |
|   Transkripcija: AliAs                |
|   Domača stran: Trzalica.com          |
|_______________________________________|
 
LEGENDA:
M = MUTE
\ = slide down
 
UGLASITEV: D G C F A D (en ton nižje)
 
TRANSPONACIJA AKORDOV:
 
D G C F A D uglasitev ------------ standardna uglasitev 
 (navidezni prijemi)                  (pravi akordi)
 
                Bm  ---------------->   Am
                G   ---------------->   F
                Em  ---------------->   Dm
                A   ---------------->   G
                C   ---------------->   Bb
 
Tabulatura in (navidezni) akordi v besedilu, so napisani za en ton nižjo uglasitev - D G C F A D.
Za igranje po tabulaturi morate kitaro torej uglasiti za en ton nižje, če pa boste igrali samo
akorde na standardni uglasitvi, pa glejte zgornjo tabelo, ki prikazuje katere akorde je treba
prijeti namesto navideznih.
 
================================================================================================
www.trzalica.com    www.trzalica.com    www.trzalica.com    www.trzalica.com    www.trzalica.com
================================================================================================
 
VERZ 1:  (00:00 - 00:54)
 
        We'll make you leave us in the Etna,
        we'll keep it silent on and forever.
        We'll make you leave us in the Etna,
        we'll keep it silent on and forever.
 
  (00:19 - 00:54)
 
        Bm
        Final stop on bay reef,
        don't wait up unnecessary,
 
D|-----------------|
A|-----------------|
F|---7-----7---9-7-|  --5x
C|-9-----9---9-----|
G|-----------------|
D|-----------------|
 
        Bm
        decorate my humor,
        I feel better with my smile on
        This must be the mountain,
        this must be the place I'm looking for.
 
D|-----------------|
A|-----------------|
F|---7-----7---9-7-|  --11x
C|-9-----9---9-----|
G|-----------------|
D|-----------------|
 
 
PRE-VEREZ 2:  (00:55 - 01:10)
 
   Bm               G            Em               C
D|-------------------------------------------------------------|
A|-------------------------------------------------------------|
F|------------------------------------------------5-5-5-5-5----|  --2x
C|-9-9-9-9-9----9-\-5-5-5-5-5----2-2-2-2-2----2---5-5-5-5-5----|
G|-9-9-9-9-9----9-\-5-5-5-5-5----2-2-2-2-2----2---3-3-3-3-3----|
D|-7-7-7-7-7----7-\-3-3-3-3-3----0-0-0-0-0----0----------------|
            M                 M            M                M
 
 
VERZ 2:  (01:11 - 01:48)
 
         Bm              G
        Made our beds inside it,
         Em             A          Bm
        noone else can see us in here,
                      G
        beautiful surroundings,
        Em             A          Bm
        underneath unknown is hiding.
                         G
        Nothing we're afraid of,
          Em               A                  Bm
        this is just the place we're looking for.
 
   Bm              G               Em              A               Bm
D|-------------------------------------------------------------------------------------------------|
A|---------------------------------------------7---------------------------------------------------|
F|---7-----7---9-7---7-----7---9-7---9-----9-----9---6-----6---7-6---7-----7---9-7---7-----7---9-7-|  --3x
C|-9-----9---9-----9-----9---9-----------9---9-----7-----7---7-----9-----9---9-----9-----9---9-----|
G|---------------------------------7---------------------------------------------------------------|
D|-------------------------------------------------------------------------------------------------|
 
 
REFREN 1:  (01:48 - 02:12)
 
      Bm                               G
        We'll make you leave us in the Etna,
                       Em              C
        we'll keep it silent on and forever.
                        Bm             G
        We'll make you leave us in the Etna,
                       Em              C     Bm    G    Em     C
        we'll keep it silent on and forever.
 
   Bm               G            Em               C
D|-------------------------------------------------------------|
A|-------------------------------------------------------------|
F|------------------------------------------------5-5-5-5-5----|  --3x
C|-9-9-9-9-9----9-\-5-5-5-5-5----2-2-2-2-2----2---5-5-5-5-5----|
G|-9-9-9-9-9----9-\-5-5-5-5-5----2-2-2-2-2----2---3-3-3-3-3----|
D|-7-7-7-7-7----7-\-3-3-3-3-3----0-0-0-0-0----0----------------|
            M                 M            M                M
 
BRIDGE:  (02:13 - 02:42)
 
Bm  G                   Em             A
        We'll make you leave us in the Etna,
                       Bm              G
        we'll keep it silent on and forever.
Em  A                   Bm             G
        We'll make you leave us in the Etna,
                       Em              A      Bm
        we'll keep it silent on and forever.
 
   Bm              G               Em              A
D|-----------------------------------------------------------------|
A|---------------------------------------------7-------------------|
F|---7-----7---9-7---7-----7---9-7---9-----9-----9---6-----6---7-6-|  --3x
C|-9-----9---9-----9-----9---9-----------9---9-----7-----7---7-----|
G|---------------------------------7-------------------------------|
D|-----------------------------------------------------------------|
 
   Bm
D|---------------------------------|
A|---------------------------------|
F|---7-----7---9-7---7-----7---9-7-|
C|-9-----9---9-----9-----9---9-----|
G|---------------------------------|
D|---------------------------------|
 
 
REFREN 3:  (02:42 - 04:22)
 
      Bm               G  ---------------------\
        Final stop on bay reef,                 \
         Em              C                       \
        don't wait up unnecessary,                \
          Bm              G                       |
        This must be the mountain,                |-- 2x
          Em               C                      |
        this must be the place I'm looking for.--/
 
   Bm               G            Em               C
D|-------------------------------------------------------------|
A|-------------------------------------------------------------|
F|------------------------------------------------5-5-5-5-5----|  --4x
C|-9-9-9-9-9----9-\-5-5-5-5-5----2-2-2-2-2----2---5-5-5-5-5----|
G|-9-9-9-9-9----9-\-5-5-5-5-5----2-2-2-2-2----2---3-3-3-3-3----|
D|-7-7-7-7-7----7-\-3-3-3-3-3----0-0-0-0-0----0----------------|
            M                 M            M                M
 
                        Bm
        We'll make you leave us in the Etna,
                       G
        we'll keep it silent on and forever.
                        Em
        We'll make you leave us in the Etna,
                       C
        we'll keep it silent, silent, silent on and forever.
 
Spodnji riff se ponavlja do konca pesmi
   Bm                      G                       Em                       C
D|--------------------------------------------------------------------------------------------------|
A|--------------------------------------------------------------------------------------------------|
F|-4-4-4-4-4---4-4-4-4-4----------------------------------------------------5-5-5-5-5---5-5-5-5-5---|
C|-4-4-4-4-4---4-4-4-4-4---5-5-5-5-5---5-5-5-5-5---2-2-2-2-2---2-2-2-2-2----5-5-5-5-5---5-5-5-5-5---|
G|-2-2-2-2-2---2-2-2-2-2---5-5-5-5-5---5-5-5-5-5---2-2-2-2-2---2-2-2-2-2----3-3-3-3-3---3-3-3-3-3---|
D|-------------------------3-3-3-3-3---3-3-3-3-3---0-0-0-0-0---0-0-0-0-0----------------------------|
             M           M           M           M           M           M            M           M
 

trzalica posnetek bar

trzalica bar
 

Dodaj komentar


Varnostna koda
Osveži

  Iskanje

config