tablatura akordi besedilo   Farmer (tab)

trzalica.com besedilo akordi tablature

Legenda ikon:


Pogoji uporabe.    

besedilo z akordi besedilo z akordi
tablature tablatura (tabulatura)
tablature tablatura za bas
tablature videolekcija

GuitarPro GutarPro (GP)
note Note (v PDF formatu)
sibelius Sibelius (SIB), itd.
..

   ___________________________________________________________
  |  _______________________________________________________  |
  | |                                                       | |
  | | IZVAJALEC: .............. Siddharta                   | |
  | | PESEM: .................. Farmer                      | |
  | | ALBUM: .................. ID                          | |
  | | LETO IZIDA: ............. 1999                        | |
  | | DOMAČA STRAN: ........... www.siddharta.net           | |
  | |_______________________________________________________| |
  | |                                                       | |
  | |           Avtor transkripcije: AliAs                  | |
  | |    Domača stran transkripcije: Trzalica.com           | |
  | |  Datum nastanka transkripcije: 23.1.2007              | |
  | |_______________________________________________________| |
  |___________________________________________________________|
 
================================================================================================
 
LEGENDA ZNAKOV:
M = MUTE
× = palm muted
p = pull off
h = hammer on
/ = slide up
\ = slide down
b = bend up za cel ton
 
Kitara 1 = Tomi
Kitara 2 = Primož
 
PRIJEMI AKORDOV:
A - 5 7 7 6 5 5
B - 7 9 9 8 7 7
D - X 5 7 7 7 X
E - X 7 9 9 9 X
G - 3 5 5 4 3 3
 
================================================================================================
www.trzalica.com    www.trzalica.com    www.trzalica.com    www.trzalica.com    www.trzalica.com
================================================================================================
 
INTRO:
 
Kitara 1:
e|---17-----------|
B|---17-----------|
G|---18-----------|
D|----------------|
A|-0--------------|
E|----------------|
 
Kitara 2:
e|----------------|
B|----------------|
G|-------6h7p6----|
D|-------------7--|
A|----------------|
E|----------------|
 
        A  G  D  > 4x  
 
 
VERZ 1:
      A                G              D
        Ko na dan z motiko pojavi se birokrat,
        da za bajto  skopal si bi ta poceni bazen, 
        dopovej  mu: "Ej, ti, kolega, ne ga srat!"
        in to preden   ga potopi problem.
                        A
        Pa ne da bi mu norce bril, 
 
 
REFREN 1:
                         G     A           D   G
        Ampak, ker ti zdrav razum in sama logika 
                      A
        dosti dobro vedeti dasta, 
               G      A              D    G  
        da še farmer sam prekopaval bi zaman, 
                   G        A            D
        o, pa naj bo še ne vem kako pregnan. 
 
 
VERZ 2:
      A                G              D
             Idiot ostane na tem, da to ni to
        pa se divje  loti     nabijanja v tla.
        Roke lomi si in ves prepoten se kmalu vda,
        še lopato    zbije, ko se  kesa. 
                        A
        Pa ne da pamet bi solil. 
 
 
REFREN 2:
                         G     A           D   G
        Ampak, ker ti zdrav razum in sama logika 
                      A
        dosti dobro vedeti dasta, 
               G      A              D    G  
        da še farmer sam prekopaval bi zaman, 
                   G        A            D
        o, pa naj bo še ne vem kako pregnan. 
 
 
SOLO (kitara 1):
 
   D              A              G             D
e|-10--10--10-----------------------------------------------------|
B|-10--10--10--8/10------------------------------------10-8-7-----|
G|--------------------6-7-9-----6-7--------7------------------9---|
D|------------------7--------7------5-7-9-----9-7----7------------|
A|----------------------------------------------------------------|
E|----------------------------------------------------------------|
      M   M
 
   A              G             D
e|----------------------------------------------------------|
B|----------------------------------------------------------|
G|-----6-7-9-----6-7---------------------------9-----6h7p6\-|
D|---7--------7------5-7-9-5--5-7----7-7-9-7-7---7-7--------|
A|----------------------------------------------------------|
E|----------------------------------------------------------|
                                     ×××   ×××   ×××
 
   A              G           D
e|---------------------------------------7-----------------|
B|---------------------------8-7------10---5h7h8p5-5h7p5---|
G|-----6-9-----6-7-----7--9--7-7----7----------------------|
D|---7------7------5-7-------------------------------------|
A|---------------------------------------------------------|
E|---------------------------------------------------------|
 
   A              G                 D                     E
e|-------------------------------------------------------------------|
B|---2/3-3/5-5/7-7/8-10p8-7h8p7\5---7------10-8-7--------------------|
G|--------------------------------7-9b-9-7--------9-7-6--/9----------|
D|--------------------------------------------------------9----------|
A|-------------------------------------------------------------------|
E|-------------------------------------------------------------------|
 
 
VERZ 3:
      B                A              E
        Ko na dan z motiko pojavi se birokrat,
        da za bajto  skopal si bi ta poceni bazen, 
        dopovej  mu: "Ej, ti, kolega, ne ga srat!"
        in to preden   ga potopi problem.
                        B
        Pa ne da bi mu norce bril, 
 
 
REFREN 3:
                         A     B           E   A
        Ampak, ker ti zdrav razum in sama logika 
                      B
        dosti dobro vedeti dasta, 
               A      B              E    A  
        da še farmer sam prekopaval bi zaman, 
                   A        B            E
        o, pa naj bo še ne vem kako pregnan. 
 
        B  A  E
 

trzalica posnetek bar

trzalica bar
 

Dodaj komentar


Varnostna koda
Osveži

  Iskanje

config