tablatura akordi besedilo   General (tab)

trzalica.com besedilo akordi tablature

Legenda ikon:


Pogoji uporabe.    

besedilo z akordi besedilo z akordi
tablature tablatura (tabulatura)
tablature tablatura za bas
tablature videolekcija

GuitarPro GutarPro (GP)
note Note (v PDF formatu)
sibelius Sibelius (SIB), itd.
..

   ___________________________________________________________
  |  _______________________________________________________  |
  | |                                                       | |
  | | IZVAJALEC: .............. Siddharta                   | |
  | | PESEM: .................. General                     | |
  | | LETO IZIDA: ............. 2011                        | |
  | | DOMAČA STRAN: ........... www.siddharta.net           | |
  | |_______________________________________________________| |
  | |                                                       | |
  | |           Avtor transkripcije: AliAs                  | |
  | |    Domača stran transkripcije: Trzalica.com           | |
  | |  Datum nastanka transkripcije: 23.3.2011              | |
  | |_______________________________________________________| |
  |___________________________________________________________|
 
================================================================================================
 
PRIJEMI AKORDOV:
 
Cm  - X 3 5 5 4 X
C5  - X 3 5 5 X X
Dm  - X 5 7 7 6 X
D#  - X 6 8 8 8 X
D#5 - X 6 8 8 X X
E5  - X 7 9 9 X X
F   - 1 3 3 2 1 1
F5  - X 8 1010X X
Gm  - 3 5 5 3 3 3
G#  - 4 6 6 5 4 4
 
Prijemi power akordov za REFREN:
 
Cm  - 3 3 5 X X X
D#  - 6 6 8 X X X
Dm  - 5 8 7 X X X
F   - 1 3 3 X X X
Gm  - 3 5 5 X X X
 
LEGENDA ZNAKOV:
 
× = palm muted
X = Muffled
h = hammer on
/ = legato slide
\ = legato slide
 
================================================================================================
www.trzalica.com    www.trzalica.com    www.trzalica.com    www.trzalica.com    www.trzalica.com
================================================================================================
 
 
UVOD:
 
      Gm
        Čudovito življenje in svobode dovolj
        D#          Cm              Gm
        Dokler general je rock 'n' roll
        Pod rafali ljubezni bomo padali dol
        D#          Cm              Gm
        Dokler general bo rock 'n' roll
 
   Gm                                                     D#              Cm
e|-----X-X-X-X-X-X-X----------X-X-X-X-X-X-----------------------------------------------|
B|-----X-X-X-X-X-X-X-10--11\--X-X-X-X-X-X-----------------------------------------------|
G|-----X-X-X-X-X-X-X-12--12\--X-X-X-X-X-X-----3--2----------------------------------3---|
D|-3-5-X-X-X-X-X-X-X----------X-X-X-X-X-X-3/5-------3-----5-3-5-3-5-3-5-3-5-3-5-3-5-----|
A|-3-5-X-X-X-X-X-X-X----------X-X-X-X-X-X--------------5--------------------------------|
E|-1-3-X-X-X-X-X-X-X----------X-X-X-X-X-X-----------------------------------------------|
                                                          ×××××××××××××××××××××××××
 
   Gm
e|-----X-X-X-X-X-X-X----------|
B|-----X-X-X-X-X-X-X-10--11\--|
G|-----X-X-X-X-X-X-X-12--12\--|
D|-3-5-X-X-X-X-X-X-X----------|
A|-3-5-X-X-X-X-X-X-X----------|
E|-1-3-X-X-X-X-X-X-X----------|
 
 
   Gm                                                     D#              Cm
e|-----X-X-X-X-X-X-X-10--10\--X-X-X-X-X-X-----------------------------------------------|
B|-----X-X-X-X-X-X-X-10--11\--X-X-X-X-X-X-----------------------------------------------|
G|-----X-X-X-X-X-X-X-12--12\--X-X-X-X-X-X-----3--2----------------------------------3---|
D|-3-5-X-X-X-X-X-X-X----------X-X-X-X-X-X-3/5-------3-----5-3-5-3-5-3-5-3-5-3-5-3-5-----|
A|-3-5-X-X-X-X-X-X-X----------X-X-X-X-X-X--------------5--------------------------------|
E|-1-3-X-X-X-X-X-X-X----------X-X-X-X-X-X-----------------------------------------------|
                                                          ×××××××××××××××××××××××××
 
   Gm
e|-----X-X-X-X-X-X-X----------|
B|-----X-X-X-X-X-X-X-10--11\--|
G|-----X-X-X-X-X-X-X-12--12\--|
D|-3-5-X-X-X-X-X-X-X----------|
A|-3-5-X-X-X-X-X-X-X----------|
E|-1-3-X-X-X-X-X-X-X----------|
 
       D#                      Cm                     Gm                      Dm
e|------------------------------------------------------------------------------------------------|
B|------------------------------------------------------------------------------------------------|
G|--------------------------------------------3--------------------------------------------3--5---|
D|-0h3h5--3--5--3--5--3--5--3--5--3--5--3--5------0h3h5--3--5--3--5--3--5--3--5/7-0--3--5---------|
A|------------------------------------------------------------------------------------------------|
E|------------------------------------------------------------------------------------------------|
 
   Gm
e|-----X-X-X-X-X-X-X-X-X-X-X-X-X-X-|
B|-----X-X-X-X-X-X-X-X-X-X-X-X-X-X-|
G|-----X-X-X-X-X-X-X-X-X-X-X-X-X-X-|
D|-3-5-X-X-X-X-X-X-X-X-X-X-X-X-X-X-|
A|-3-5-X-X-X-X-X-X-X-X-X-X-X-X-X-X-|
E|-1-3-X-X-X-X-X-X-X-X-X-X-X-X-X-X-|
 
 
VERZ:
 
      Gm
        Ponorelo letenje in nobenih patrol
        D#          Cm              Gm
        Dokler general je rock 'n' roll
        In ne pozabi na njo, ki ljubila te bo
        D#          Cm              Gm
        Dokler general bo rock 'n' roll
 
 
      Gm                  F5          E5
        In bo tako, ker zdaj prihaja jutro
           D#5        D5  C5           F5       Gm
        Z jutrom upanje, polno tiste prave sreče
           F5          E5    D#5          D5
        In tu so naše roke, dvignjene v nebo
         C5       G#
        Generalu salutirajo, en, dva, tri, šter.
 
   Gm                                                     D#              Cm
e|-----X-X-X-X-X-X-X----------X-X-X-X-X-X-----------------------------------------------|
B|-----X-X-X-X-X-X-X-10--11\--X-X-X-X-X-X-----------------------------------------------|
G|-----X-X-X-X-X-X-X-12--12\--X-X-X-X-X-X-----3--2----------------------------------3---|
D|-3-5-X-X-X-X-X-X-X----------X-X-X-X-X-X-3/5-------3-----5-3-5-3-5-3-5-3-5-3-5-3-5-----|
A|-3-5-X-X-X-X-X-X-X----------X-X-X-X-X-X--------------5--------------------------------|
E|-1-3-X-X-X-X-X-X-X----------X-X-X-X-X-X-----------------------------------------------|
                                                          ×××××××××××××××××××××××××
 
   Gm
e|-----X-X-X-X-X-X-X----------|
B|-----X-X-X-X-X-X-X-10--11\--|
G|-----X-X-X-X-X-X-X-12--12\--|
D|-3-5-X-X-X-X-X-X-X----------|
A|-3-5-X-X-X-X-X-X-X----------|
E|-1-3-X-X-X-X-X-X-X----------|
 
 
   Gm                                                     D#              Cm
e|-----X-X-X-X-X-X-X-10--10\--X-X-X-X-X-X-----------------------------------------------|
B|-----X-X-X-X-X-X-X-10--11\--X-X-X-X-X-X-----------------------------------------------|
G|-----X-X-X-X-X-X-X-12--12\--X-X-X-X-X-X-----3--2----------------------------------3---|
D|-3-5-X-X-X-X-X-X-X----------X-X-X-X-X-X-3/5-------3-----5-3-5-3-5-3-5-3-5-3-5-3-5-----|
A|-3-5-X-X-X-X-X-X-X----------X-X-X-X-X-X--------------5--------------------------------|
E|-1-3-X-X-X-X-X-X-X----------X-X-X-X-X-X-----------------------------------------------|
                                                          ×××××××××××××××××××××××××
 
   Gm
e|-----X-X-X-X-X-X-X----------|
B|-----X-X-X-X-X-X-X-10--11\--|
G|-----X-X-X-X-X-X-X-12--12\--|
D|-3-5-X-X-X-X-X-X-X----------|
A|-3-5-X-X-X-X-X-X-X----------|
E|-1-3-X-X-X-X-X-X-X----------|
 
   F5   E5   D#5  D5   C5   F    Gm
e|---------------------------------------------------------------|
B|---------------------------------------------------------------|
G|-10---9----8----7----5-----------------------------------------|
D|--------------------------3----3-5-------------3-5-------------|
A|-8----7----6----5----3---------3-5-5-5-5-5-5-5-3-5-5-5-5-5-5-5-|
E|--------------------------1----1-3-3-3-3-3-3-3-1-3-3-3-3-3-3-3-|
                                     ×××××××××××     ×××××××××××
 
   F5   E5   D#5  D5   C5   G#
e|--------------------------------------------|
B|--------------------------------------------|
G|-10---9----8----7----5----------------------|
D|--------------------------6-----------------|
A|-8----7----6----5----3----------------------|
E|--------------------------4-----------------|
 
       D#                      Cm                     Gm                      Dm
e|------------------------------------------------------------------------------------------------|
B|------------------------------------------------------------------------------------------------|
G|--------------------------------------------3--------------------------------------------3--5---|
D|-0h3h5--3--5--3--5--3--5--3--5--3--5--3--5------0h3h5--3--5--3--5--3--5--3--5/7-0--3--5---------|
A|------------------------------------------------------------------------------------------------|
E|------------------------------------------------------------------------------------------------|
 
   D#                      Cm
e|------------------------------------------------|
B|------------------------------------------------|
G|--------------------------------------------3---|
D|-0h3h5--3--5--3--5--3--5--3--5--3--5--3--5------|
A|------------------------------------------------|
E|------------------------------------------------|
 
 
MOST:
 
      Gm                 D# Cm
        Ne pozabi na njo
      Gm          D#  Cm     Gm
        Zdaj se dani,  se dani
                  D#  Cm       Gm
        Zdaj se dani ooo se dani
                 D#  Cm     Gm
        Naj se dani,  se dani
                  D#  Cm       Gm
        Zdaj se dani ooo se dani
      Dm                 D# Cm
        In ne pozabi na njo
                   D# Cm          D# Cm  Gm
        Pozabi na njo, pozabi na njo
 
   D#    Cm  D#  Cm  D#  Cm  Gm
e|---------------------------------------------------------|
B|---------------------------------------------------------|
G|---------------------------------------------------------|
D|---------------------------5-----------------------------|
A|-3/6---3---6---3---6---3---5--5-5-5-5-5-5-5-5-5-5-5-5-5--|
E|---------------------------3--3-3-3-3-3-3-3-3-3-3-3-3-3--|
                                ×××××××××××××××××××××××××
 
 
REFREN:
 
        D# Cm Gm Dm
         D#           Cm
        Zdaj prihaja jutro
           Gm    Dm      D#           Cm       (F Gm)
        Z jutrom upanje, polno tiste prave sreče
 
   F Gm            F Gm
e|---------------------------------|
B|---------------------------------|
G|---------------------------------|
D|-3-5-------------3-5-------------|
A|-3-5-5-5-5-5-5-5-3-5-5-5-5-5-5-5-|
E|-1-3-3-3-3-3-3-3-1-3-3-3-3-3-3-3-|
      ×××××××××××     ×××××××××××
 
           D#         Cm     Gm           Dm
        In tu so naše roke, dvignjene v nebo
        D#       Cm      D#  Cm
        Generalu salutirajo
        D#       Cm      D#  Cm
        Generalu salutirajo
        D#       Cm      D#  Cm
        Generalu salutirajo
        D#       Cm      D#  Cm
        Generalu salutirajo
        D#  Cm
        D#
 

trzalica bartrzalica bar

Dodaj komentar


Varnostna koda
Osveži

  Iskanje

config