tablatura akordi besedilo   Gnan (tab)

trzalica.com besedilo akordi tablature

Legenda ikon:


Pogoji uporabe.    

besedilo z akordi besedilo z akordi
tablature tablatura (tabulatura)
tablature tablatura za bas
tablature videolekcija

GuitarPro GutarPro (GP)
note Note (v PDF formatu)
sibelius Sibelius (SIB), itd.
..

 _______________________________________________________
|                                                       |
| IZVAJALEC: ................................ Siddharta |
| PESEM: .................................... Gnan      |
| ALBUM: .................................... Petrolea  |
| LETO IZIDA: ............................... 2006      |
|_______________________________________________________|
|                                                       |
|  Vrsta transkripcije: Tablatura in besedilo           |
|  Avtor transkripcije: AliAs                           |
|  Domača stran transkripcije: Trzalica.com             |
|  Datum nastanka transkripcije: 21.08.2006             |
|_______________________________________________________|
 
 
================================================================================================
 
LEGENDA ZNAKOV:
M = MUTE
× = palm muted
~ = let ring
h = hammer on
/ = slide up
\ = slide down
 
Uporaba prstov v Riffu (Intro in po prvem refrenu):
k = kazalec
m = mezinec
s = sredinec
 
================================================================================================
 
 
INTRO:
                3x
e|------------------------------|---------------------------------|
B|------------------------------|---------------------------------|
G|------------------------------|---------------------------------| -- 2x
D|---------------2--2--2--2--2--|---------------------------------|
A|---------------2--2--2--2--2--|-5-2-2-5-2-2-5-2-2-5-2-2-5-2-5-2-|
E|-0-7-0-2-7-0-3-0--0--0--0--0--|---------------------------------|
     m   k m   s   M  M  M  M     m k   m k   m k   m k   m k m k
 
e|-----------------------------------------------------|
B|-----------------------------------------------------|
G|-----------------------------------------------------|
D|-2------2------2------2------2------2------2------2--|
A|-2--2-2-2--2-2-2--2-2-2--2-2-2--2-2-2--2-2-2-2--2-2--|
E|-0--0-0-0--0-0-0--0-0-0--0-0-0--0-0-0--0-0-0-0--0-0--|
      ×××    ×××    ×××    ×××    ×××    ×××   ××××   M
 
 
VERZ 1:
 
        Zaprte so žile nemega bitja
        Oddaljene od lepot sveta
        Previdno objamem mala nebesa
        Previdno obrnem luč nad njo
 
 
REFREN 1:
 
        Blag utrip v tihem srcu
 
e|-------------------------|
B|-------------------------|
G|-------------------------|
D|-------------------------|
A|-------------------------|
E|-3--2--3--5--7--5--3--5--|
 
        Tempo upada ti rabiš način 
        Vrata odpirajo nove stvari
 
e|-------------------------|
B|-------------------------|
G|-------------------------| -- 2x
D|-2--2--5--5--4--4--7--7--|
A|-2--2--3--3--2--2--5--5--|
E|-0--0--3--3--2--2--5--5--|
     M  M  M  M  M  M  M  M
 
        Ki daje magijo momentom
        Ki dajejo zlato neskončnim užitkom želja
 
e|-----------------------------------------------|
B|-----------------------------------------------|
G|-----------------------------------------------|
D|-5-------7-------5-------7--7-------4--4-------|
A|-3-------5-------3-------5--5--5555-2--2--2222-|
E|-3-------5-------3-------5--5--5555-2--2--2222-|
    ~~~~~~~ ~~~~~~~ ~~~~~~~      ××××       ××××
 
                3x
e|------------------------------|---------------------------------|
B|------------------------------|---------------------------------|
G|------------------------------|---------------------------------| -- 2x
D|---------------2--2--2--2--2--|---------------------------------|
A|---------------2--2--2--2--2--|-5-2-2-5-2-2-5-2-2-5-2-2-5-2-5-2-|
E|-0-7-0-2-7-0-3-0--0--0--0--0--|---------------------------------|
     m   k m   s   M  M  M  M     m k   m k   m k   m k   m k m k
 
 
VERZ 2:
 
        In tam se rodi v tebi krik
        To gonilo v ljudeh
        Ki pohodi vse bele laži
 
e|-------------------------------------------------------------|
B|-------------------------------------------------------------|
G|-------------------------------------------------------------|
D|-2---2-4--------5-0-5-7-0------5-0-5-7-0------5-4-2-4-2-0-1--|
A|---2-----2---------------------------------------------------|
E|-------------------------------------------------------------|
   ××××××××××××××××××××××××××××××××××××××××××××××××××××××××   M
 
        Kam te ponese ta zalet
        Tja visoko nad vse
        Kar oviralo je pravljice
 
 
REFREN 2:
 
        Ti tiho bitje…
 
e|---------------------------------------|
B|---------------------------------------|
G|---------------------------------------|
D|---------------------------------------|
A|-5h7-5h7-5h7-5h7-3---/10--9\7/10--9--\-|
E|---------------------------------------|
 
        Tempo upada ti rabiš način 
        Vrata odpirajo nove stvari
 
e|-------------------------|
B|-------------------------|
G|-------------------------| -- 2x
D|-2--2--5--5--4--4--7--7--|
A|-2--2--3--3--2--2--5--5--|
E|-0--0--3--3--2--2--5--5--|
     M  M  M  M  M  M  M  M
 
        Ki daje magijo momentom
        Ki dajejo zlato neskončnim užitkom želja
 
e|-----------------------------------------------|
B|-----------------------------------------------|
G|-----------------------------------------------|
D|-5-------7-------5-------7--7-------4--4-------|
A|-3-------5-------3-------5--5--5555-2--2--2222-|
E|-3-------5-------3-------5--5--5555-2--2--2222-|
    ~~~~~~~ ~~~~~~~ ~~~~~~~      ××××       ××××
 
 
BRIDGE:
Akordi za salso:
        Em   Bm   C    G  D    > 2x
 
 
        Daj daj daj
 
e|--------------------------------------|
B|--------------------------------------|
G|--------------------------------------| -- 2x
D|-2---2--2----------2----2--2----------|
A|-2---2--2----------2-22-2--2----------|
E|-0---0--0----------0-00-0--0----------|
     M   M  M          ××   M  M
 
        Tempo upada ti rabiš način 
        Vrata odpirajo nove stvari
 
 
REFREN 3:
 
        Ki daje magijo momentom 
        Ki dajejo obliko srcu
        Ki dajejo zlato neskončnim užitkom želja
 
e|----------------------------------------------------------------|
B|----------------------------------------------------------------|
G|----------------------------------------------------------------|
D|-5-------7-------5-------7-------5-------7-------4--4-------2---|
A|-3-------5-------3-------5-------3-------5--5555-2--2--2222-2---|
E|-3-------5-------0-------5-------3-------5--5555-2--2--2222-0---|
    ~~~~~~~ ~~~~~~~ ~~~~~~~ ~~~~~~~ ~~~~~~~   ××××       ××××    M
 

trzalica posnetek bar

trzalica bar
 

Dodaj komentar


Varnostna koda
Osveži

  Iskanje

config