tablatura akordi besedilo   Hollywood (tab)

trzalica.com besedilo akordi tablature

Legenda ikon:


Pogoji uporabe.    

besedilo z akordi besedilo z akordi
tablature tablatura (tabulatura)
tablature tablatura za bas
tablature videolekcija

GuitarPro GutarPro (GP)
note Note (v PDF formatu)
sibelius Sibelius (SIB), itd.
..

   ___________________________________________________________
  |  _______________________________________________________  |
  | |                                                       | |
  | | IZVAJALEC: .............. Siddharta                   | |
  | | PESEM: .................. Hollywood                   | |
  | | LETO IZIDA: ............. 2011                        | |
  | | DOMAČA STRAN: ........... www.siddharta.net           | |
  | |_______________________________________________________| |
  | |                                                       | |
  | |           Avtor transkripcije: AliAs                  | |
  | |    Domača stran transkripcije: Trzalica.com           | |
  | |  Datum nastanka transkripcije: 20.6.2011              | |
  | |_______________________________________________________| |
  |___________________________________________________________|
 
================================================================================================
 
PRIJEMI AKORDOV:
 
A   - X 0 2 2 2 0
Am  - X 0 2 2 1 0
C   - X 3 2 0 1 0
C#m - X 4 6 6 5 4
E   - 0 2 2 1 0 0
G   - 3 5 5 4 3 3
G#m - 4 6 6 4 4 4
H   - X 2 4 4 4 2
 
================================================================================================
www.trzalica.com    www.trzalica.com    www.trzalica.com    www.trzalica.com    www.trzalica.com
================================================================================================
 
 
VERZ:
 
E
E  G#m  A  E
G#m  A  E  G#m
A  E  G#m  A
    E     G#m       A             E    G#m  A
Stoletje zvezd gre mimo mene, ko vozim se vmes
   E    G#m   A        E   G#m   A
Zidovi polni neona in velikih čudes
    E     C#m       H    A        E    C#m    H     A
Le nekaj sveč bo gorelo zato, da biseri    izginejo
     E    C#m        H       A        E       C#m    H     A
Milijone solz bo hlapelo takrat, ko spet nazaj   se vrnejo
 
e|-------------|
H|-------0-0-0-|
G|-----9-------|
D|-9-9---------|
A|-------------|
E|-------------|
 
 
REFREN:
 
    E       G      C      H
Verjela si noro v najino moč
     E       Am      C        H
Poletela, letela bi daleč od tod
    E       G      C      H
Verjela si noro v najino moč
     E       Am       C    H
Odletela si sama čez Hollywood
 
1. kitara:
   E           G           C           H           E           Am          C           H             E
e|-------------------------------------------------------------------------------------------------|------|
H|-------------------------------------------------------------------------------------------------|------|
G|-------------------------------------------------------------------------------------------------|------|
D|-2-2-2-2-2-2-5-5-5-5-5-5-5-5-5-5-5-5-4-4-4-4-4-4-2-2-2-2-2-2-7-7-7-7-7-7-5-5-5-5-5-5-4-4---------|------|
A|-2-2-2-2-2-2-5-5-5-5-5-5-3-3-3-3-3-3-2-2-2-2-2-2-2-2-2-2-2-2-7-7-7-7-7-7-3-3-3-3-3-3-2-2---------|------|
E|-0-0-0-0-0-0-3-3-3-3-3-3-3-3-3-3-3-3-2-2-2-2-2-2-0-0-0-0-0-0-5-5-5-5-5-5-3-3-3-3-3-3-2-2-2b--2b--|-0----|
 
2. kitara:
   E           G           C           H           E           Am          C           H
e|-------------------------------------------------------------------------------------------------|
H|---------------------------------------------5-5---------------------------------------------5-5-|
G|-4-4-4-4-4-4-4-4-4-4-4-4-5-5-5-5-5-5-4-4-4-4-4-4-4-4-4-4-4-4-5-5-5-5-5-5-5-5-5-5-5-5-4-4-4-4-4-4-|
D|-------------------------------------------------------------------------------------------------|
A|-------------------------------------------------------------------------------------------------|
E|-------------------------------------------------------------------------------------------------|
 
 
VERZ:
 
E  G#m  A  E
G#m  A  E  G#m
A  E  G#m  A
     E   G#m      A             E     G#m       A  
Je presvetlo, da bi zaspal, ko peljem se skozi noč
   E     G#m     A              E  G#m    A
Nihče ne bo me prepoznal, ker svetimo drugot
    E    C#m      H     A       E     C#m       H     A
In te ljudi se v miru pusti, Pozabimo,   da obstajajo
  E     C#m        H    A         E      C#m     H       A
Vse te zvezde, ki vodijo nas, Pustimo jim,   pustimo čas
 
e|-------------|
H|-------0-0-0-|
G|-----9-------|
D|-9-9---------|
A|-------------|
E|-------------|
 
 
REFREN:
 
    E       G      C      H
Verjela si noro v najino moč
     E       Am      C        H
Poletela, letela bi daleč od tod
    E       G      C      H
Verjela si noro v najino moč
     E       Am       C    H
Odletela si sama čez Hollywood
 
1. kitara:
   E           G           C           H           E           Am          C           H
e|-------------------------------------------------------------------------------------------------|
H|-------------------------------------------------------------------------------------------------|
G|-------------------------------------------------------------------------------------------------|
D|-2-2-2-2-2-2-5-5-5-5-5-5-5-5-5-5-5-5-4-4-4-4-4-4-2-2-2-2-2-2-7-7-7-7-7-7-5-5-5-5-5-5-4-4---------|
A|-2-2-2-2-2-2-5-5-5-5-5-5-3-3-3-3-3-3-2-2-2-2-2-2-2-2-2-2-2-2-7-7-7-7-7-7-3-3-3-3-3-3-2-2---------|
E|-0-0-0-0-0-0-3-3-3-3-3-3-3-3-3-3-3-3-2-2-2-2-2-2-0-0-0-0-0-0-5-5-5-5-5-5-3-3-3-3-3-3-2-2-2b--2b--|
 
   E           G           C           H           E           Am          C           H
e|-------------------------------------------------------------------------------------------------|
H|-------------------------------------------------------------------------------------------------|
G|-------------------------------------------------------------------------------------------------|
D|-2-2-2-2-2-2-5-5-5-5-5-5-5-5-5-5-5-5-4-4-4-4-4-4-2-2-2-2-2-2-7-7-7-7-7-7-5-5-5-5-5-5-4-4-4-4-4-4-|
A|-2-2-2-2-2-2-5-5-5-5-5-5-3-3-3-3-3-3-2-2-2-2-2-2-2-2-2-2-2-2-7-7-7-7-7-7-3-3-3-3-3-3-2-2-2-2-2-2-|
E|-0-0-0-0-0-0-3-3-3-3-3-3-3-3-3-3-3-3-2-2-2-2-2-2-0-0-0-0-0-0-5-5-5-5-5-5-3-3-3-3-3-3-2-2-2-2-2-2-|
 
2. kitara:
   E           G           C           H           E           Am          C           H
e|-------------------------------------------------------------------------------------------------|
H|---------------------------------------------5-5---------------------------------------------5-5-|
G|-4-4-4-4-4-4-4-4-4-4-4-4-5-5-5-5-5-5-4-4-4-4-4-4-4-4-4-4-4-4-5-5-5-5-5-5-5-5-5-5-5-5-4-4-4-4-4-4-|
D|-------------------------------------------------------------------------------------------------|
A|-------------------------------------------------------------------------------------------------|
E|-------------------------------------------------------------------------------------------------|
 
 
MOST:
 
   E           G#m         A
e|-------------------------------------------------|
H|-------------------------------------------------|
G|-9-9-9-9-9-9-8-8-8-8-4-4-6-6-6-6-6-6-6-6-6-6-8-8-|
D|-------------------------------------------------|
A|-7-7-7-7-7-7-6-6-6-6-2-2-4-4-4-4-4-4-4-4-4-4-6-6-|
E|-------------------------------------------------|
 
   E           C#m               H                 A
e|---------------------------------------------------------------|
H|---------------------------------------------------------------|
G|-9-9-9-9-9-9-13-13-13-13-16-16-16-16-14-14-14-13-9-9-9-9-9-9-9-|
D|---------------------------------------------------------------|
A|-7-7-7-7-7-7-11-11-11-11-14-14-14-14-12-12-12-11-7-7-7-7-7-7-7-|
E|---------------------------------------------------------------|
 
   E           G#m         A
e|-------------------------------------------------|
H|-------------------------------------------------|
G|-9-9-9-9-9-9-8-8-8-8-4-4-6-6-6-6-6-6-6-6-6-6-8-8-|
D|-------------------------------------------------|
A|-7-7-7-7-7-7-6-6-6-6-2-2-4-4-4-4-4-4-4-4-4-4-6-6-|
E|-------------------------------------------------|
 
   E           C#m               H                   C#m
e|-------------------------------------------------|---------------|
H|-------------------------------------------------|---------------|
G|-9-9-9-9-9-9-13-13-13-13-16-16-16-16-14-14-14-13-|-6-6-6-6-6-6-6-|
D|-------------------------------------------------|---------------|
A|-7-7-7-7-7-7-11-11-11-11-14-14-14-14-12-12-12-11-|-4-4-4-4-4-4-4-|
E|-------------------------------------------------|---------------|
 
REFREN:
 
    E       G      C      H
Verjela si noro v najino moč
     E       Am      C        H
Poletela, letela bi daleč od tod
    E       G      C      H
Verjela si noro v najino moč
     E       Am       C    H
Odletela si sama čez Hollywood
 
1. kitara:
   E           G           C           H           E           Am          C           H             E
e|-------------------------------------------------------------------------------------------------|------|
H|-------------------------------------------------------------------------------------------------|------|
G|-------------------------------------------------------------------------------------------------|------|
D|-2-2-2-2-2-2-5-5-5-5-5-5-5-5-5-5-5-5-4-4-4-4-4-4-2-2-2-2-2-2-7-7-7-7-7-7-5-5-5-5-5-5-4-4---------|------|
A|-2-2-2-2-2-2-5-5-5-5-5-5-3-3-3-3-3-3-2-2-2-2-2-2-2-2-2-2-2-2-7-7-7-7-7-7-3-3-3-3-3-3-2-2---------|------|
E|-0-0-0-0-0-0-3-3-3-3-3-3-3-3-3-3-3-3-2-2-2-2-2-2-0-0-0-0-0-0-5-5-5-5-5-5-3-3-3-3-3-3-2-2-2b--2b--|-0----|
 
2. kitara:
   E           G           C           H           E           Am          C           H
e|-------------------------------------------------------------------------------------------------|
H|---------------------------------------------5-5---------------------------------------------5-5-|
G|-4-4-4-4-4-4-4-4-4-4-4-4-5-5-5-5-5-5-4-4-4-4-4-4-4-4-4-4-4-4-5-5-5-5-5-5-5-5-5-5-5-5-4-4-4-4-4-4-|
D|-------------------------------------------------------------------------------------------------|
A|-------------------------------------------------------------------------------------------------|
E|-------------------------------------------------------------------------------------------------|
 
 
E  G#m  A  E
G#m  A  E  G#m
A  E  G#m  A
 
e|-------------|
H|-------0-0-0-|
G|-----9-------|
D|-9-9---------|
A|-------------|
E|-------------|
 

trzalica bartrzalica bar

Komentarji   

0 #1 Simona 15:25 23-08-2012
Ima kdo slučajno tablaturo za del, ko igra na sintesajzer? Je fuuull lep del. Prosim, če se da komu še to zapisati.
Hvalaaaa
Citat | Poročilo administratorju

Dodaj komentar


Varnostna koda
Osveži

  Iskanje

config