tablatura akordi besedilo   Homo Carnula (tab)

trzalica.com besedilo akordi tablature

Legenda ikon:


Pogoji uporabe.    

besedilo z akordi besedilo z akordi
tablature tablatura (tabulatura)
tablature tablatura za bas
tablature videolekcija

GuitarPro GutarPro (GP)
note Note (v PDF formatu)
sibelius Sibelius (SIB), itd.
..

Vse verzije te pesmi:    besedilo z akordi  Homo Carnula       Homo Carnula (tab)

trzalica bar

 _______________________________________________________
|                                                       |
| IZVAJALEC: ............................. Siddharta    |
| PESEM: ................................. Homo carnula |
| ALBUM: ................................. Petrolea     |
| LETO IZIDA: ............................ 2006         |
|_______________________________________________________|
|                                                       |
|  Avtor transkripcije: AliAs                           |
|  Domača stran transkripcije: Trzalica.com             |
|  Datum nastanka transkripcije: 08.09.2006             |
|_______________________________________________________|
 
================================================================================================
 
LEGENDA ZNAKOV:
M = MUTE
× = palm muted
X = Muffled
~ = let ring
()= tona v oklepju ni potrebno udariti
/ = slide up
\ = slide down
 
Prijemi akordov za INTRO in OUTRO:
A     - X 0 2 2 2 0
Am    - X 0 2 2 1 0
A11   - X 0 2 2 4 X
B     - X 2 4 4 4 X
C     - X 3 5 5 5 X
Dsus2 - X 0 0 2 3 0
E     - 0 2 2 1 0 0
E*    - 4 2 2 1 0 0
E/F#  - 2 2 2 1 0 0
E/G   - 3 2 2 1 0 0
F#m   - 2 4 4 2 2 2
 
================================================================================================
 
INTRO: 
 
Intro sem razdelil v štiri kitice, zaradi lažje orientacije po tabulaturi za kitaro (Primož).
 
1. Kitica
      E
        Nemirno spim s slamo sem pokrit
                      Dsus2
        Z luknjami v čeveljcih
                      A   A11  A
        Lačen od drobtin
              Am            E
        V posmeeeeeh vsem njim
 
2. Kitica
        E
        Brez glasu pojem skupaj z njo
                    Dsus2
        strgano harmoniko
                    A   A11  A
        Krivo a toplo
              Am            E
        V posmeeeeeh vsem njim
 
3. Kitica
               B
        Potem obrne se svet
                        A                 E*  E/F#  E
        V sooooju znajdeeem se luči bogatiiiiiiih
                  B
        Si kdaj vdahnil parfum
                         A  E*  E/G    E/F#  E
        ki plava ob ljudeeeeeeeeeh drugačniiiiih
                F#m                       B
        Želja stati z njimi z ramo ob ramiiii
                         E
        zbledela je v temi
 
4. Kitica
        E
        Ostal bom tam koder sem začel
                        Dsus2
        Stran od sive množice
                         A   A11  A
        Stisnjen med plevel
              Am       >E -> Solo
        A ne booooom trpel
 
 
Kitara - Primož: (besede nad tabulaturo prikazujejo, kdaj se udarjajo toni)
 
1. Kitica
   ...vsem njim...
        e|--------------------------------|
        B|-10-/12--------12\\\------------|
        G|--------------------------------|
        D|--------------------------------|
        A|--------------------------------|
        E|--------------------------------|
 
2. Kitica
...skupaj z njo... ...strgano harmoniko... ...toplo...                  ...posmeeeeeh vsem njim...
        e|----5\4-----------4-----4---------------------5----5-5-5-5-5-5-------5---5-----------------|
        B|--------5---------5-----5-------------------5------5-5-5-5-5-5-------5---5-----------------|
        G|----------4-------4-----4-----------------6--------8-8-8-8-8-6-------5---5-----------------|
        D|----------------------------------------7----------7-7-7-7-7-7-------7---7-----------------|
        A|-------------------------------------------------------------------------------------------|
        E|-----------------------------------------------------------------------------------0-------|
 
3. Kitica
                         ...Potem obrne se svet v soju znajdeeem...
        e|-------------------------------------------------------------------------|
        B|-3-/5----5-\3-0--------------------------------------2-------------------|
        G|-------------------2-1------------------------------2--------------------|
        D|-----------------------2---------------------------2---------------------|
        A|-------------------------------------------------------------------------|
        E|-------------------------------------------------------------------------|
 
...ki plava ob ljudeeeeeeeeeeeeh drugačnih... ...želja stati z njimi...            ...zbledela je v temi..
        e|--------------------5--------------0---------------------------------------------------------0--|
        B|--------------------5-------------0--------------------------2-------------4-----------------0--|
        G|--------------2-----6------------1-----------------------2------2--------4-------------------1--|
        D|------------2-------------------2---------------------4-----------4----4---------------------2--|
        A|----------0--------------------2-------------------4----------------(2)----------------------2--|
        E|------------------------------0----------------(2)-------------------------------------------0--|
 
 
4. Kitica
...med plevel...               ...a ne booooom trpel.
        e|-------5-5-5-5-5-5-7----------7---5-----|
        B|-------5-5-5-5-5-5-5----------5---5-----|
        G|-------8-8-8-8-8-8-6----------5---5-----|
        D|-------7-7-7-7-7-7-7----------7---7-----|
        A|----------------------------------------|
        E|----------------------------------------|
 
 
SOLO:
 
e|-12------12-10-0-----------------------------|
B|----12-0---------13-12-0-12-10-12-13-0-13-15-|
G|---------------------------------------------|  -- 7x
D|---------------------------------------------|  (v prvih štirih ponovitvah se tempo povečuje)
A|---------------------------------------------|
E|---------------------------------------------|
 
e|-12------12-10-0-----------------------------12--------|
B|----12-0---------13-12-0-12-10-12-13-0-13-15-----------|
G|-------------------------------------------------------|
D|-------------------------------------------------------|
A|-------------------------------------------------------|
E|-------------------------------------------------------|
 
 
Solo riff:
 
e|---------------------------------|
B|---------------------------------|
G|---------------------------------|  -- 4x (z vsako ponovitvijo hitrejši tempo)
D|-2-----2-----2-----2-----2---2-2-|
A|-2-2-2-2-2-2-2-2-2-2-2-2-2---2-2-|
E|-0-0-0-0-0-0-0-0-0-0-0-0-0---0-0-|
     ×××   ×××   ×××   ×××   M 
 
e|--------------------------------------|
B|--------------------------------------|
G|--------------------------------------|
D|-2--------2--------2--------2---------|
A|-2--------2--------2--------2---------|
E|-0--------0--------0--------0---------|
    ~~~~~~~~ ~~~~~~~~ ~~~~~~~~ ~~~~~~~~M
 
 
VERZ:
 
        E
        Nemirno spim v svili prepoten 
        Prenažrt obilne kuhinje
                                  F#m
        Nasičen z davki in sit carin
                      A            B
        Kako lahko vpliven pri ljudeh
                         E
        sem tarča za posmeh
 
   F#m               A                               B
e|-----------------------------------------------------------------------------------|
B|-----------------------------------------------------------------------------------|
G|-------------------7-6-6-7-6-6-7-6-6-7-6-6-7-6-6-6/9-9-9-9-9-9-9-9-9-9-9-9-9-9-9-9-|
D|-4--------4------------------------------------------------------------------------|
A|-4--------4----------------------------------------7-7-7-7-7-7-7-7-7-7-7-7-7-7-7-7-|
E|-2--------2------------------------------------------------------------------------|
    ~~~~~~~~ ~~~~~~~~
 
   E
e|--------------------------------------------------|
B|--------------------------------------------------|
G|--------------------------------------------------|
D|---2----2----2--2-2--------2----2----2--2-2-------|
A|-2-2--2-2--2-2--2-2------2-2--2-2--2-2--2-2-------|
E|-0-0--0-0--0-0--0-0------0-0--0-0--0-0--0-0-------|
   ×    ×    ×       ~~~~~~×    ×    ×       ~~~~~~M
 
 
        E
        Tokrat vse za dober glas 
        Rad bi dal vsa čustva ven iz knjig
                             F#m
        Zamenjal delo za navdih
                      A            B
        Kako lahko vpliven pri ljudeh
                        E
        sem vedno v posmeh
 
 
   F#m               A                               B
e|-----------------------------------------------------------------------------------|
B|-----------------------------------------------------------------------------------|
G|-------------------7-6-6-7-6-6-7-6-6-7-6-6-7-6-6-6/9-9-9-9-9-9-9-9-9-9-9-9-9-9-9-9-|
D|-4--------4------------------------------------------------------------------------|
A|-4--------4----------------------------------------7-7-7-7-7-7-7-7-7-7-7-7-7-7-7-7-|
E|-2--------2------------------------------------------------------------------------|
    ~~~~~~~~ ~~~~~~~~
 
   E
e|--------------------------------------------------|
B|--------------------------------------------------|
G|--------------------------------------------------|
D|---2----2----2--2-2-------------------------------|
A|-2-2--2-2--2-2--2-2-------------------------------|
E|-0-0--0-0--0-0--0-0------0-12--0-10--8-7--5-7-8-7-|
   ×    ×    ×       ~~~~~~×     × 
 
 
REFREN:
 
                B
        Potem obrne se svet
                     A                   G#m  F#m  E
        V soju znajdeeem se luči prerevniiiiiiiiiiiih
                  B
        Si kdaj vdahnil parfum
                         A           E
        ki plava ob ljudeeeh drugačniiih
 
                  2x                        2x
   B                                 A                 G#m      F#m E
e|---------------------------------|-----------------|-------------------------|
B|---------------------------------|-----------------|-----------------9-9-9-9-|
G|---------------------------------|-----------------|-----------------9-9-9-9-|
D|-9-9-9-9-9-9-9-9-9-9-9-9-9-9-9-9-|-7-7-7-7-7-7-7-7-|-6-6-6-6--4------9-9-9-9-|
A|-9-9-9-9-9-9-9-9-9-9-9-9-9-9-9-9-|-7-7-7-7-7-7-7-7-|-6-6-6-6--4--------------|
E|-7-7-7-7-7-7-7-7-7-7-7-7-7-7-7-7-|-5-5-5-5-5-5-5-5-|-4-4-4-4--2---0----------|
 
                  2x
   B                                 A                   E
e|---------------------------------|---------------------------------------|
B|---------------------------------|---------------------------------------|
G|---------------------------------|---------------------------------------|
D|-9-9-9-9-9-9-9-9-9-9-9-9-9-9-9-9-|-7-7-7-7-7-7-7-7-7---------2-----------|
A|-9-9-9-9-9-9-9-9-9-9-9-9-9-9-9-9-|-7-7-7-7-7-7-7-7-7---------2-----------|
E|-7-7-7-7-7-7-7-7-7-7-7-7-7-7-7-7-|-5-5-5-5-5-5-5-5-5---------0-----------|
                                                       M        ~~~~~~~~~~M
 
 
OUTRO:
 
                F#m                        B
        Želja stati z njimi z ramo ob ramiiii
                           A     C    E
        zbledela je v temiiii
 

trzalica bartrzalica bar

Dodaj komentar


Varnostna koda
Osveži

  Iskanje

config