tablatura akordi besedilo   Indija (tab)

trzalica.com besedilo akordi tablature

Legenda ikon:


Pogoji uporabe.    

besedilo z akordi besedilo z akordi
tablature tablatura (tabulatura)
tablature tablatura za bas
tablature videolekcija

GuitarPro GutarPro (GP)
note Note (v PDF formatu)
sibelius Sibelius (SIB), itd.
..

Vse verzije te pesmi:      Indija (tab)       Indija (bas)

trzalica bar

 _______________________________________________________
|                                                       |
| IZVAJALEC: ....................... Siddharta          |
| PESEM: ........................... Indija             |
| ALBUM: ........................... ID                 |
| LETO IZIDA: ...................... 1999               |
|_______________________________________________________|
|                                                       |
|  Avtor transkripcije: AliAs                           |
|  Domača stran transkripcije: Trzalica.com             |
|  Datum nastanka transkripcije: 3.5.2007               |
|_______________________________________________________|
 
================================================================================================
 
LEGENDA ZNAKOV:
M = MUTE
× = palm muted
^ = bend up za cel ton
p = pull off
/ = slide up
\ = slide down
v = vibrated
 
Kitara 1 = Tomi
Kitara 2 = Primož
 
================================================================================================
 
INTRO:
 
Kitara 1:
                2x
   Bm
e|-5-7-7-7-7p5------------------|-5-7-7-7-7p5-------------------------------------------------|
B|-------------8-8-8-7-7-7-7----|-------------8-8-8-7-7-7-7--5-5-5\3--3-3-3\2--2-2-2p0-0-0-0--|
G|------------------------------|-------------------------------------------------------------|
D|------------------------------|-------------------------------------------------------------|
A|------------------------------|-------------------------------------------------------------|
E|------------------------------|-------------------------------------------------------------|
                             M
 
Kitara 2:
                  2x
   Bm
e|---------------------------------|-----------------------------------------------------------------|
B|---------------------------------|-----------------------------------------------------------------|
G|---------------------------------|-----------------------------------------------------------------|
D|-7-9-9-9-9p7---------------------|-7-9-9-9-9p7-----------------------------------------------------|
A|-------------10-10-10-9-9-9-9----|-------------10-10-10-9-9-9-9--7-7-7\5--5-5-5\4--4-4-4\2--2-2-2--|
E|---------------------------------|-----------------------------------------------------------------|
                                M
 
Kitara 1:
                 5x
e|-5-7-7-7-7p5-5-5-5-7-7-7-7p5-----|
B|-----------------------------7-8-|
G|---------------------------------|
D|---------------------------------|
A|---------------------------------|
E|---------------------------------|
 
e|-5-7-7-7-7p5-5-5-5-7-7-7-7p5-----------------------------------------------------|
B|-----------------------------8-8-7v--7v--7v--7v--8-8-8-8-7v--7v--7v--7v--8-8-8-8-|
G|---------------------------------------------------------------------------------|
D|---------------------------------------------------------------------------------|
A|---------------------------------------------------------------------------------|
E|---------------------------------------------------------------------------------|
 
                 5x
e|-5-7-7-7-7p5-5-5-5-7-7-7-7p5-----|-5-7-7-7-7p5-5-5-5-7-7-7-7p5---------|
B|-----------------------------7-8-|-----------------------------8-8-7---|
G|---------------------------------|-------------------------------------|
D|---------------------------------|-------------------------------------|
A|---------------------------------|-------------------------------------|
E|---------------------------------|-------------------------------------|
                                                                       M
 
Kitara 2 (Ritem udarjanja akordov po občutku):
   Bm    G     E     Bm
e|-------------------------|
B|-------------------------|
G|-4-----------------4-----|  -- 2x
D|-4-----5-----2-----4-----|
A|-2-----5-----2-----2-----|
E|-------3-----0-----------|
 
 
VERZ 1:
 
Kitara 1:
                   4x
   Bm
e|----2----|----------------|--------|
B|----3----|----------------|--------|
G|----4----|-4-4---4-4------|-4-4----|
D|----4----|-4-4---4-4------|-4-4----|
A|----2----|-2-2---2-2------|-2-2----|
E|---------|----------------|--------|
        M        M     M
 
Kitara 2 (z wah-wahom):
          9x
   Bm                A           G   F#
e|-2---3---7---5---|-5---5---5---3---2---2---2---2---|
B|-0---0---7---5---|-5---5---5---3---2---2---2---2---|
G|-----------------|---------------------------------|
D|-----------------|---------------------------------|
A|-----------------|---------------------------------|
E|-----------------|---------------------------------|
 
        Bm
        Ne pusti jim prostosti!
        Ne pusti jim vseh besed!
                         A    G  F#
        Če pa dobijo bitko,
                             Bm
        pozabi na ves svoj svet!
 
Kitara 1:
                       3x
e|----|----------------------------------|---------------------------|
B|-5--|-7-7-8-7-8-7-7-7-7-10-7-7-8-7-7-7-|-7-7-8-7-8-7-7-7---------\-|
G|----|----------------------------------|---------------------------|
D|----|----------------------------------|---------------------------|
A|----|----------------------------------|---------------------------|
E|----|----------------------------------|---------------------------|
 
Kitara 2:
          4x
   Bm           A    Bm
e|-----------------|--------|
B|-----------------|--------|
G|-4-4---4-4----2--|-4-4----|
D|-4-4---4-4----2--|-4-4----|
A|-2-2---2-2----0--|-2-2----|
E|-----------------|--------|
 
        Bm
        Ne klanjaj se postavam!
        To pot gostiš ti ta ples!
                                  A    G  F#
        Ne glej zdaj, kje je glavni!
                    E
        To zdaj si ti...
 
Kitara 2 (z wah-wahom):
          5x
   Bm                A           G   F#      E
e|-2---3---7---5---|-5---5---5---3---2---2---------|
B|-0---0---7---5---|-5---5---5---3---2---2---------|
G|-----------------|-------------------------------|
D|-----------------|-------------------------2-----|
A|-----------------|-------------------------2-----|
E|-----------------|-------------------------0-----|
                                               M
 
 
BRIDGE:
 
  ** Riff A
 
Obe kitari:
                                                8x
   B5      C5      C#5     D5                 E
e|------------------------------------------|---------|
B|------------------------------------------|---------|
G|------------------------------------------|---------|
D|-4444444455555555666666667777777777777777-|-2-2-2-2-|
A|-2222222233333333444444445555555555555555-|-2-2-2-2-|
E|-2222222233333333444444445555555555555555-|-0-0-0-0-|
 
 
  ** Riff B
 
Kitara 1:
   E
e|----------|
B|----------|
G|----------|  -- 8x
D|----------|
A|-22222222-|
E|-00000000-|
   ××××××××
 
Kitara 2 (z wah-wahom):
e|--------------|
B|---------12---|
G|-9-9-9-9------|
D|--------------|
A|--------------|
E|--------------|
 
 
  ** Riff C
 
Kitara 1:
   E
e|---------|
B|---------|
G|---------|  -- 8x
D|-2-2-2-2-|
A|-2-2-2-2-|
E|-0-0-0-0-|
 
Kitara 2:
e|----------------------------------|----------------------------------|
B|----------------------------------|----------------------------------|
G|----------------------------------|----------------------------------|
D|-22200022333000332220002233355533-|-22200022333000332220002233355533-|
A|----------------------------------|----------------------------------|
E|----------------------------------|----------------------------------|
   ××××××××××××××××××××××××××××××××
 
 
  ** Riff D
 
Kitara 1:
e|----------------------------------|
B|----------------------------------|
G|----------------------------------|  -- 4x
D|----------------------------------|
A|-2--0--2-3--0--3-2--0--2-3--5--3--|
E|----------------------------------|
 
Kitara 2:
e|----------------------------------|
B|----------------------------------|
G|-11111111111111111212121212121212-|  -- 8x
D|----------------------------------|
A|-9-9-9-9-9-9-9-9-1010101010101010-|
E|----------------------------------|
 
 
VERZ 2:
 
Kitara 1:
e|----------------------------------------------------------------------------------------|
B|-7--------------------------------------------------------------------------------------|
G|----------9--------7--------6-----------------7^-6----6--7-----6-7p6--------------------|
D|----9--9-----9--9-----9--9-----9--9--7-9-----------9-------7-9-------7--9----7---4------|
A|----------------------------------------------------------------------------------------|
E|----------------------------------------------------------------------------------------|
      ××××××   ××××××   ××××××   ××××××
 
Kitara 2 (z wah-wahom):
          5x                                                  5x
   Bm                A           G   F#                Bm                A           G   F#      E
e|-2---3---7---5---|-5---5---5---3---2---2---2---2---|-2---3---7---5---|-5---5---5---3---2---2---------|
B|-0---0---7---5---|-5---5---5---3---2---2---2---2---|-0---0---7---5---|-5---5---5---3---2---2---------|
G|-----------------|---------------------------------|-----------------|-------------------------------|
D|-----------------|---------------------------------|-----------------|-------------------------2-----|
A|-----------------|---------------------------------|-----------------|-------------------------2-----|
E|-----------------|---------------------------------|-----------------|-------------------------0-----|
                                                                                                   M
 
        Bm
        Pomlad dežela nova,
        za njih pravice tu ni,
                              A    G  F#
        kjer strelski vod in zanka,
        zastreta vsak pogled
        Bm
        teh, ki jim ni prostosti.
        Bili so strah in trepet.
                           A
        Dokaži kdo je glavni!
                       G   F#
        živi na svoji ravni,
                 E
        če ne v boj...
 
 
OUTRO:
 
Kitara 1:
e|-2222333355556666-|
B|------------------|
G|------------------|
D|------------------|
A|------------------|
E|------------------|
 
Kitara 2:
   F#  G   A   A#
e|------------------|
B|------------------|
G|------------------|
D|-4444555577778888-|
A|-4444555577778888-|
E|-2222333355556666-|
 
 
Kitara 1:
                 5x
e|-5-7-7-7-7p5-5-5-5-7-7-7-7p5-----|
B|-----------------------------7-8-|
G|---------------------------------|
D|---------------------------------|
A|---------------------------------|
E|---------------------------------|
 
e|-5-7-7-7-7p5-5-5-5-7-7-7-7p5-----------------------------------------------------|
B|-----------------------------8-8-7v--7v--7v--7v--8-8-8-8-7v--7v--7v--7v--8-8-8-8-|
G|---------------------------------------------------------------------------------|
D|---------------------------------------------------------------------------------|
A|---------------------------------------------------------------------------------|
E|---------------------------------------------------------------------------------|
 
                 5x
e|-5-7-7-7-7p5-5-5-5-7-7-7-7p5-----|-5-7-7-7-7p5-5-5-5-7-7-7-7p5---------|
B|-----------------------------7-8-|-----------------------------8-8-7---|
G|---------------------------------|-------------------------------------|
D|---------------------------------|-------------------------------------|
A|---------------------------------|-------------------------------------|
E|---------------------------------|-------------------------------------|
                                                                       M
 
Kitara 2 (Ritem udarjanja akordov po občutku):
   Bm    G     E     Bm
e|-------------------------|
B|-------------------------|
G|-4-----------------4-----|  -- 2x
D|-4-----5-----2-----4-----|
A|-2-----5-----2-----2-----|
E|-------3-----0-----------|
 

trzalica bartrzalica bar

Dodaj komentar


Varnostna koda
Osveži

  Iskanje

config