tablatura akordi besedilo   Keltvek (tab)

trzalica.com besedilo akordi tablature

Legenda ikon:


Pogoji uporabe.    

besedilo z akordi besedilo z akordi
tablature tablatura (tabulatura)
tablature tablatura za bas
tablature videolekcija

GuitarPro GutarPro (GP)
note Note (v PDF formatu)
sibelius Sibelius (SIB), itd.
..

 _______________________________________
|                                       |
| IZVAJALEC: ................ Siddharta |
| PESEM: ...................... Keltvek |
| ALBUM: ......................... Nord |
|_______________________________________|
|                                       |
|   Transkripcija: AliAs                |
|   Domača stran: Trzalica.com          |
|_______________________________________|
 
================================================================================================
 
LEGENDA:
        M = MUTE
        / = slide up
        \ = slide down
        ~ = let ring
        × = palm muted
        X = Muffled
 
================================================================================================
www.trzalica.com    www.trzalica.com    www.trzalica.com    www.trzalica.com    www.trzalica.com
================================================================================================
 
INTRO:  (00:00 - 00:48)
 
(00:00 - 00:16) = Em
   Em
e|----------------------| --(Intro igrajo samo v živo.
B|----------------------|     Po strunah udari vsakič,
G|----------------------|      ko udarijo bobni.)
D|----------------------|
A|-2-2--2-2--2-2--2-2-2-| --4x
E|-0-0--0-0--0-0--0-0-0-|
   ××××××××××××××××××××
 
(00:16 - 00:31):
   Em                      Bm          D
e|-------------------------------------------------|
B|-------------------------------------------------|
G|-------------------------------------------------| --4x
D|-------------------------------------------------|
A|-2-2-2-2-2-2-2-2-2-2-2-2-2-2-2-2-2-2-5-5-5-5-5-5-|
E|-0-0-0-0-0-0-0-0-0-0-0-0-2-2-2-2-2-2-5-5-5-5-5-5-|
   ×××××××××××××××××××××××××××××××××××××××××××××××
 
(00:32 - 00:48) solo:
e|------------------------------------------------------------------------------------------------------X-|
B|------------------------------------------------------------------------------------------------------X-|
G|------------------------------------------------------------------------------------------------------X-|
D|-------9------9--------------9------9--10-------------9------9--------------9------9--10----------------|
A|-7--7----7-10----5--5--7--7----7-10--------10\9-7--7----7-10----5--5--7--7----7-10--------10\9-7~~~~~~--|
E|--------------------------------------------------------------------------------------------------------|
 
e|---------------------------------------------------------|
B|--12-10--------------------------------------------------|
G|--------12-11-9-11-12-11-9-11----11-9--------------------|
D|--------------------------------------12-11--------------|
A|--------------------------------------------10\9-7~~~~~~-|
E|---------------------------------------------------------|
 
 
VERZ 1:  (00:49 - 01:36)
 
        Em  Bm  A          D
        Ju-nak jezdi v daljavo
           Em  Bm  A       D
        v boj za svoje ljudi
         Em  Bm A       D        Em  Bm
        maaala deklica žalostno poooje
           A         G           Am
        v zadnji pozdrav saj ne ve
                      B                  Am
        kdaj mu spet pade v objem in ne ve
                   B
        ali sploh še v tem življenju...
 
           Em  Bm   A      D
        O le glej mladi bojevnik
           Em  Bm  A      D
        razum naj vodi pogum,
          Em   Bm A         D          Em   Bm
        mlaaj je poslednja luč pred vihaaarjem
         A       G         Am              B
        kopij in ostrih sekir, v zraku lebdijo
                   Am            B
        imena za plen, sliši se prvi nemir.
 
                 -- 3x --
   Em        Bm        A         D           Em        Bm        A         G
e|-7-7-7-7---7-7-7-7---5-5-5-5-------------|-7-7-7-7---7-7-7-7---5-5-5-5---3-3-3-3--|
B|-8-8-8-8---7-7-7-7---5-5-5-5---7-7-7-7---|-8-8-8-8---7-7-7-7---5-5-5-5---3-3-3-3--|
G|-9-9-9-9---7-7-7-7---6-6-6-6---7-7-7-7---|-9-9-9-9---7-7-7-7---6-6-6-6---4-4-4-4--|
D|-9-9-9-9---9-9-9-9---7-7-7-7---7-7-7-7---|-9-9-9-9---9-9-9-9---7-7-7-7---5-5-5-5--|
A|-7-7-7-7---9-9-9-9---7-7-7-7---5-5-5-5---|-7-7-7-7---9-9-9-9---7-7-7-7---5-5-5-5--| --\
E|-7-7-7-7---7-7-7-7---5-5-5-5-------------|-7-7-7-7---7-7-7-7---5-5-5-5---3-3-3-3--|   |
          M         M         M         M           M         M         M         M     |
                                                                                        |--2x
   Am                  B                   Am                  B                        |
e|-5-5-5-5~~~5-5-5-5~~~7-7-7-7~~~7-7-7-7~~~5-5-5-5~~~5-5-5-5~~~7--7--7--7---|           |
B|-5-5-5-5~~~5-5-5-5~~~7-7-7-7~~~7-7-7-7~~~5-5-5-5~~~5-5-5-5~~~7--7--7--7---|----------/
G|-5-5-5-5~~~5-5-5-5~~~8-8-8-8~~~8-8-8-8~~~5-5-5-5~~~5-5-5-5~~~8--8--8--8---|
D|-7-7-7-7~~~7-7-7-7~~~9-9-9-9~~~9-9-9-9~~~7-7-7-7~~~7-7-7-7~~~9--9--9--9---|
A|-7-7-7-7~~~7-7-7-7~~~9-9-9-9~~~9-9-9-9~~~7-7-7-7~~~7-7-7-7~~~9--9--9--9---|
E|-5-5-5-5~~~5-5-5-5~~~7-7-7-7~~~7-7-7-7~~~5-5-5-5~~~5-5-5-5~~~7--7--7--7---|
                                                                M  M  M  M
 
REFREN 1:  (01:37 - 02:20)
 
(01:37 - 02:04)
               -- 3x --
   E       C#m   G#m       D   A     B
e|---------------------------------|----------------|
B|---------------------------------|----------------|
G|---------------------------------|----------------|
D|-2-2-2-2-6-6-6-6-6-6-6-6-7-7-7-7-|-4~~~~~~~~~~~~~-|
A|-2-2-2-2-4-4-4-6-6-6-6-6-5-5-7-7-|-2~~~~~~~~~~~~~-|
E|-0-0-0-0-4-4-4-4-4-4-4-4-5-5-5-5-|-2~~~~~~~~~~~~~-|
 
(02:04 - 02:20)
   Em                      Bm          D
e|-------------------------------------------------|
B|-------------------------------------------------|
G|-------------------------------------------------| --4x
D|-------------------------------------------------|
A|-2-2-2-2-2-2-2-2-2-2-2-2-2-2-2-2-2-2-5-5-5-5-5-5-|
E|-0-0-0-0-0-0-0-0-0-0-0-0-2-2-2-2-2-2-5-5-5-5-5-5-|
   ×××××××××××××××××××××××××××××××××××××××××××××××
 
 
VERZ 2:  (02:20 - 02:52)
 
        Em  Bm  A      D        Em   Bm A       D
        Ju-nak se je vlegel na zem-ljo polno krvi
         Em  Bm A           D        Em  Bm A
        saaama deklica s sklonjeno glaaavo nosi
            G         Am              B                Am
        cvetove v spomin, skrivljeno jeklo počiva na tleh,
                   B                  Em(pre-refren 2)
        konec je vsega in konec vseh.
 
                 -- 3x --
   Em        Bm        A         D           Em        Bm        A         G
e|-7-7-7-7---7-7-7-7---5-5-5-5-------------|-7-7-7-7---7-7-7-7---5-5-5-5---3-3-3-3--|
B|-8-8-8-8---7-7-7-7---5-5-5-5---7-7-7-7---|-8-8-8-8---7-7-7-7---5-5-5-5---3-3-3-3--|
G|-9-9-9-9---7-7-7-7---6-6-6-6---7-7-7-7---|-9-9-9-9---7-7-7-7---6-6-6-6---4-4-4-4--|
D|-9-9-9-9---9-9-9-9---7-7-7-7---7-7-7-7---|-9-9-9-9---9-9-9-9---7-7-7-7---5-5-5-5--|
A|-7-7-7-7---9-9-9-9---7-7-7-7---5-5-5-5---|-7-7-7-7---9-9-9-9---7-7-7-7---5-5-5-5--|
E|-7-7-7-7---7-7-7-7---5-5-5-5-------------|-7-7-7-7---7-7-7-7---5-5-5-5---3-3-3-3--|
          M         M         M         M           M         M         M         M 
 
   Am                  B                   Am                  B
e|-5-5-5-5~~~5-5-5-5~~~7-7-7-7~~~7-7-7-7~~~5-5-5-5~~~5-5-5-5~~~7--7--7--7---|
B|-5-5-5-5~~~5-5-5-5~~~7-7-7-7~~~7-7-7-7~~~5-5-5-5~~~5-5-5-5~~~7--7--7--7---|
G|-5-5-5-5~~~5-5-5-5~~~8-8-8-8~~~8-8-8-8~~~5-5-5-5~~~5-5-5-5~~~8--8--8--8---|
D|-7-7-7-7~~~7-7-7-7~~~9-9-9-9~~~9-9-9-9~~~7-7-7-7~~~7-7-7-7~~~9--9--9--9---|
A|-7-7-7-7~~~7-7-7-7~~~9-9-9-9~~~9-9-9-9~~~7-7-7-7~~~7-7-7-7~~~9--9--9--9---|
E|-5-5-5-5~~~5-5-5-5~~~7-7-7-7~~~7-7-7-7~~~5-5-5-5~~~5-5-5-5~~~7--7--7--7---|
                                                                M  M  M  M
 
REFREN 2:  (02:52 - 03:52)
 
               -- 6x --
   E       C#m   G#m       D   A     B
e|---------------------------------|----------------|
B|---------------------------------|----------------|
G|---------------------------------|----------------|
D|-2-2-2-2-6-6-6-6-6-6-6-6-7-7-7-7-|-4~~~~~~~~~~~~~-|
A|-2-2-2-2-4-4-4-6-6-6-6-6-5-5-7-7-|-2~~~~~~~~~~~~~-|
E|-0-0-0-0-4-4-4-4-4-4-4-4-5-5-5-5-|-2~~~~~~~~~~~~~-|
 

trzalica posnetek bar

trzalica bar
 

Dodaj komentar


Varnostna koda
Osveži

  Iskanje

config