tablatura akordi besedilo   Klinik (tab)

trzalica.com besedilo akordi tablature

Legenda ikon:


Pogoji uporabe.    

besedilo z akordi besedilo z akordi
tablature tablatura (tabulatura)
tablature tablatura za bas
tablature videolekcija

GuitarPro GutarPro (GP)
note Note (v PDF formatu)
sibelius Sibelius (SIB), itd.
..

Vse verzije te pesmi:      Klinik (tab)       Klinik (bas)       Klinik (gp)

trzalica bar

 _______________________________________
|                                       |
| IZVAJALEC: ................ Siddharta |
| PESEM: ....................... Klinik |
| ALBUM: ......................... Nord |
|_______________________________________|
|                                       |
|   Transkripcija: AliAs                |
|   Domača stran: Trzalica.com          |
|_______________________________________|
 
================================================================================================
 
UGLASITEV: kapodaster na drugem polju - odprta struna je 2. polje (številka 2 v tabulaturi torej
predstavlja struno, 'prijeto' na drugi prečki - s tem, da jo 'drži' kapodaster. Namesto št. 2, 
bi torej lahko zapisal kar ničlo (0), ampak sem se odločil, da bom obdržal pravo zaporedje prečk.
Zato morate tabulaturo brati, kot da na kitari nimate kapodastra (čeprav ga imate :) ), tone na 
drugi prečki pa NE primete, ker to delo opravlja kapodaster).
 
Kako to pesem igrata Tomi in Primož...
Tomi ima kapodaster na drugi prečki in igra intro riff (tudi med verzom); Primož pa na kitari
nima pritrjenega kapodastra, igra pa solo (oba pa seveda igrata ritem v refrenu :) ).
Ta tabulatura je napisana samo za kitaro s kapodastrom - tudi solo, čeprav ga odigra Primož 
brez kapodastra.
 
LEGENDA:
        M = MUTE
        ~ = let ring
        / = slide up
        \ = slide down
        b = bend up za cel ton
        r = release bend
 
================================================================================================
www.trzalica.com    www.trzalica.com    www.trzalica.com    www.trzalica.com    www.trzalica.com
================================================================================================
 
INTRO & VERZ 1:  (00:00 - 00:44)
 
    Bm                      G            Em
F#|-----2----2------2----2-------2----2--------2----|
C#|-------8-----------8------------8----------------|
A |---7-----------7-----------7--------------9----9-| --6x
E |-------------------------5--------------9--------|
B |-2-----------2------------------------7----------|
F#|-------------------------------------------------|
    Bm                      G            F#
F#|-----2----2------2----2------2----2--------2-----|
C#|-------8-----------8-----------8-----------------|
A |---7-----------7-----------7-------------9-------|
E |-------------------------5-------------9---------|
B |-2-----------2-----------------------7-----------|
F#|-------------------------------------------------|
 
  Intro: (Bm  G  Em) 3x
      Bm                        G         Em             Bm
        Sumljiva noč je v zraku, prihaja mož povsod iskan.
                             G         Em             Bm
        Poznam njegove misli, poznam vsak njegov korak.
                             G         Em            Bm
        Ne vidi, ne, ne vidi, ne vidi sence nad seboj,
                              G                 F#
        slovi po svojem grehu, zdaj grešil bom jaz.
 
 
REFREN 1:  (00:45 - 00:59)
 
    F#     Bm                   G                      A           F#          G           F#
F#|------|----------------------------------------------------------------------------------------|
C#|------|----------------------------------------------------------------------------------------|
A |------|----------------------------------------------------------------------------------------|
E |-4----|-9---9--9--9-9--9--9--5-5---5--5--5-5--5--5--7-7---7--7--4-4---4--4--5-5---5--5--4-4~~~~|
B |-4----|-9---9--9--9-9--9--9--5-5---5--5--5-5--5--5--7-7---7--7--4-4---4--4--5-5---5--5--4-4~~~~|
F#|-2----|-7---7--7--7-7--7--7--3-3---3--3--3-3--3--3--5-5---5--5--2-2---2--2--3-3---3--3--2-2~~~~|
      M      M  M  M    M  M  M     M  M  M    M  M  M     M  M  M     M  M  M     M  M  M
 
     F#                Bm        G
        Stran glejte vsi, to je moje klanje,
                  A        F#       G            F#
        pesek v oči sem dobil, kriminal je zanj lek.
 
 
SOLO:  (00:58 - 01:12)
 
    Bm                      G            Em
F#|-----2----2------2----2-------2----2--------2----|
C#|-------8-----------8------------8----------------|
A |---7-----------7-----------7--------------9----9-| --2x(solo verz)
E |-------------------------5--------------9--------|
B |-2-----------2------------------------7----------|
F#|-------------------------------------------------|
 
  Solo:
    F#             Bm                      G      Em  Bm                  G          Em
F#|------------------------------------------------------------------------------------------|
C#|------------------------------------------------------------------------------------------|
A |----------------9b---9b-9b--9b---9b-7--9b--9----------------------------------------------|
E |------9-11-12-9--------------------------------7---12--11-9--12--11-9-/14--12-11-/16---\2-|
B |-9-12-------------------------------------------------------------------------------------|
F#|------------------------------------------------------------------------------------------|
 
 
VERZ 2:  (01:12 - 01:37)
 
    Bm                      G            Em
F#|-----2----2------2----2-------2----2--------2----|
C#|-------8-----------8------------8----------------|
A |---7-----------7-----------7--------------9----9-| --3x
E |-------------------------5--------------9--------|
B |-2-----------2------------------------7----------|
F#|-------------------------------------------------|
    Bm                      G            F#
F#|-----2----2------2----2------2----2--------2-----|
C#|-------8-----------8-----------8-----------------|
A |---7-----------7-----------7-------------9-------|
E |-------------------------5-------------9---------|
B |-2-----------2-----------------------7-----------|
F#|-------------------------------------------------|
 
      Bm                            G          Em               Bm
        Zaprt je v vakuum s strahom, privezan na svoj SickMental.
                                  G         Em           Bm
        In hranim ga s strihninom, na rane dajem belo sol.
                              G          E             Bm
        Ne vidi, ne , ne vidi, ne vidi zdaj je brez oči,
                               G            F#
        zavil sem jih v črnino, podaril zverem.
 
 
REFREN 2:  (01:38 - 02:06)
 
                                                  -- 2x --
    F#     Bm                   G                      A           F#          G           F#
F#|------|----------------------------------------------------------------------------------------|
C#|------|----------------------------------------------------------------------------------------|
A |------|----------------------------------------------------------------------------------------|
E |-4----|-9---9--9--9-9--9--9--5-5---5--5--5-5--5--5--7-7---7--7--4-4---4--4--5-5---5--5--4-4~~~~|
B |-4----|-9---9--9--9-9--9--9--5-5---5--5--5-5--5--5--7-7---7--7--4-4---4--4--5-5---5--5--4-4~~~~|
F#|-2----|-7---7--7--7-7--7--7--3-3---3--3--3-3--3--3--5-5---5--5--2-2---2--2--3-3---3--3--2-2~~~~|
      M      M  M  M    M  M  M     M  M  M    M  M  M     M  M  M     M  M  M     M  M  M
 
     F#                Bm        G
        Stran glejte vsi, to je moje klanje,
                  A        F#       G            F#
        pesek v oči sem dobil, kriminal je zanj lek.
                             Bm         G
        Sprva nem - krik za tem, to je moje klanje,
                 A         F#       G             F#
        rane mu razijo profil, kriminal je zanj leek.
 
 
BRIDGE:  (02:07 - 02:47)
 
     F#                Bm         G                   Em         F#
        Stran glejte vsi, to so moooje sanje, to so moooje sanjee.
                 Bm          G                   Em         F#
        Ta kriminal, so le moooje sanje, so le moooje sanjee.
 
 
REFREN 3:  (02:48 - 03:25)
 
     F#                Bm        G
        Stran glejte vsi, to je moje klanje,
               A         F#       G            F#
        to je moje klanjee, kriminal je zanj leek.
                             Bm         G
        Sprva nem - krik za tem, to je moje klanje,
                 A          F#      G             A        Bm
        klinika maščevalnosti je od danes le še kraj za kosti.
 
    F#   Bm                   G                      A           F#          G           F#
F#|-------------------------------------------------------------------------------------------|
C#|-------------------------------------------------------------------------------------------|
A |-------------------------------------------------------------------------------------------|
E |-4----9---9--9--9-9--9--9--5-5---5--5--5-5--5--5--7-7---7--7--4-4---4--4--5-5---5--5--4-4--|
B |-4----9---9--9--9-9--9--9--5-5---5--5--5-5--5--5--7-7---7--7--4-4---4--4--5-5---5--5--4-4--|
F#|-2----7---7--7--7-7--7--7--3-3---3--3--3-3--3--3--5-5---5--5--2-2---2--2--3-3---3--3--2-2--|
      M    M  M  M    M  M  M     M  M  M    M  M  M     M  M  M     M  M  M     M  M  M     M
 
    Bm                   G                      A           F#          G        A      Bm
F#|--------------------------------------------------------------------------------------------|
C#|--------------------------------------------------------------------------------------------|
A |--------------------------------------------------------------------------------------------|
E |-9---9--9--9-9--9--9--5-5---5--5--5-5--5--5--7-7---7--7--4-4---4--4--5-5~~~~~~7~~~~~~9~~~~~~|
B |-9---9--9--9-9--9--9--5-5---5--5--5-5--5--5--7-7---7--7--4-4---4--4--5-5~~~~~~7~~~~~~9~~~~~~|
F#|-7---7--7--7-7--7--7--3-3---3--3--3-3--3--3--5-5---5--5--2-2---2--2--3-3~~~~~~5~~~~~~7~~~~~~|
      M  M  M    M  M  M     M  M  M    M  M  M     M  M  M     M  M  M     
 
Druga kitara v zaključku (zadnji trije akordi):
    G        A           Bm
F#|------------------------------|
C#|------------------------------|
A |----------6---9--7-9--11------|
E |-9----------------------------|
B |----------4---7--5-7--9-------|
F#|-7----------------------------|
 

trzalica bartrzalica bar Exibicionisti na Forumu
trzalica bar

 

Dodaj komentar


Varnostna koda
Osveži

  Iskanje

config