besedilo  Klinik (bas)

trzalica.com besedilo akordi tablature

Legenda ikon:


Pogoji uporabe.    

besedilo z akordi besedilo z akordi
tablature tablatura (tabulatura)
tablature tablatura za bas
tablature videolekcija

GuitarPro GutarPro (GP)
note Note (v PDF formatu)
sibelius Sibelius (SIB), itd.
..

Vse verzije te pesmi:      Klinik (tab)       Klinik (bas)       Klinik (gp)

trzalica bar

 

Here is "klinik":
artist: siddharta
album: nord
song: klinik

Tabbed by stanci skarja 1989.

VERSE

g-------------------------------------------------------------------------
d-------------------------------------------------------------------------
a-------------------------------------------------------------------------
e---07777-77---07777-77---03333-33---05555-55-----------------------------

CHORUS

g-------------------------------------------------------------------------
d-------------------------------------------------------------------------
a---3-3333333---------0000------------------------------------------------
e-------------3333333------222-3333-5-------------------------------------

BRIDGE

g-------------------------------------------------------------------------
d-------------------------------------------------------------------------
a---3333-33---------------------------------------------------------------
e-----------3333-33-5555-5555555------------------------------------------

OUTRO

g-------------------------------------------------------------------------
d-------------------------------------------------------------------------
a---33333333--------------------------------------------------------------
e------------3333333-5555555-22222--3—5—7---------------------------------

Can be this more simple?

STRUCTURE:

verse 6x
chorus 1x
bridge 2x
verse 4x
chorus 2x
/////////////// this is that part of song when no one is playing ( you will hear it)
chorus 1x
outro 1x

trzalica bartrzalica bar

Dodaj komentar


Varnostna koda
Osveži

  Iskanje

config