tablatura akordi besedilo   Kloner (tab)

trzalica.com besedilo akordi tablature

Legenda ikon:


Pogoji uporabe.    

besedilo z akordi besedilo z akordi
tablature tablatura (tabulatura)
tablature tablatura za bas
tablature videolekcija

GuitarPro GutarPro (GP)
note Note (v PDF formatu)
sibelius Sibelius (SIB), itd.
..

 _______________________________________
|                                       |
| IZVAJALEC: ................ Siddharta |
| PESEM: ....................... Kloner |
| ALBUM: .......................... Rh- |
|_______________________________________|
|                                       |
|   Transkripcija: AliAs                |
|   Domača stran: Trzalica.com          |
|_______________________________________|
 
================================================================================================
www.trzalica.com    www.trzalica.com    www.trzalica.com    www.trzalica.com    www.trzalica.com
================================================================================================
 
INTRO:  (00:00 - 00:27)
Klaviature na kitari:
       2x                             4x
   Em           Em         G           Am          D
e|------------|------------------------------------------------|
B|---12-10-12-|---12-10-12----12-10-12----10----10----10----10-|
G|-9----------|-9----------------------------12----------12----|
D|------------|------------12----------10----------12----------|
A|------------|------------------------------------------------|
E|------------|------------------------------------------------|
 
      Em              G               Am        D
        Do nadaljnega,  ne bomo rabl sebe razumet,
             Em        G               Am          D
        enostaven svet,  lepote vsega tega mormo met,
              Em      G              Am        D
        neverjeten duuh, golota je vse okoli nas,
                  Em      G             Am             D
        in nismo mi od muuh,  vzamemo vse kar gre v slast.
 
 
VERZ 1:  (00:28 - 00:52)
   Em      G       Am      D
e|-0-0-0-0-3-3-3-3-0-0-0-0-2-2-2-2-|
B|-0-0-0-0-0-0-0-0-1-1-1-1-3-3-3-3-|
G|-0-0-0-0-0-0-0-0-2-2-2-2-2-2-2-2-| --4x
D|-2-2-2-2-0-0-0-0-2-2-2-2-0-0-0-0-|
A|-2-2-2-2-2-2-2-2-0-0-0-0-0-0-0-0-|
E|-0-0-0-0-3-3-3-3-----------------|
 
                Em     G                  Am         D
        Zdaj igrajo mi,  in to francosko za romantiko,
             Em      G                Am         D
        nimamo skrbi,  oblaki so poskriti za goro,
                 Em      G                      Am        D
        kaj nam bo problem, saj med in mleko streže se vsem,
              Em     G                Am         D
        in zato refren, le ponazarja filinge v men.
 
Klaviature na kitari:
   Em         G           Am          D
e|------------------------------------------------|
B|---12-10-12----12-10-12----10----10----10----10-|
G|-9----------------------------12----------12----| --4x
D|------------12----------10----------12----------|
A|------------------------------------------------|
E|------------------------------------------------|
 
 
REFREN 1:  (00:52 - 01:17)
      Em           G  D     Am         Em       \
        Na ta lep daaan, v meni erekcija         \
                   G  Am        D                 |--2x
        se ti ne zdiiii, da ne more biti lepša.  /
 
SOLO 1:  (01:17 - 01:30)
   Em      G       Am      D
e|-0-0-0-0-3-3-3-3-0-0-0-0-2-2-2-2-|
B|-0-0-0-0-0-0-0-0-1-1-1-1-3-3-3-3-|
G|-0-0-0-0-0-0-0-0-2-2-2-2-2-2-2-2-| --2x
D|-2-2-2-2-0-0-0-0-2-2-2-2-0-0-0-0-|
A|-2-2-2-2-2-2-2-2-0-0-0-0-0-0-0-0-|
E|-0-0-0-0-3-3-3-3-----------------|
 
Solo 1:
e|-------------------------------------------------------------|
B|-------------------------------------------------------------|
G|------------------7-9-7--------------------------------------|
D|--------------7-9-------9----9-7----7--7----7-9-7----7-------|
A|-5-/7--7-9-10--------------------10------10-------10---9-----|
E|---------------------------------------------------------10--|
 
e|-----------------------------------------------7-------------|
B|---------------------------------8-10--10-8-10---10-8-10-----|
G|------------------7-9---7----9-7-----------------------------|
D|--------------7-9-----9--------------------------------------|
A|-5-/7--7-9-10------------------------------------------------|
E|-------------------------------------------------------------|
 
 
VERZ 2:  (01:30 - 01:54)
   Em      G       Am      D
e|-0-0-0-0-3-3-3-3-0-0-0-0-2-2-2-2-|
B|-0-0-0-0-0-0-0-0-1-1-1-1-3-3-3-3-|
G|-0-0-0-0-0-0-0-0-2-2-2-2-2-2-2-2-| --4x
D|-2-2-2-2-0-0-0-0-2-2-2-2-0-0-0-0-|
A|-2-2-2-2-2-2-2-2-0-0-0-0-0-0-0-0-|
E|-0-0-0-0-3-3-3-3-----------------|
 
      Em                   G                 Am        D
        Naj bo noč naj bo dan, nobeden ni nikol utrujen,
      Em              G                Am               D
        ni velikih bogov, le mi imamo šov,(šov šov šov šov šov šov šov)
      Em                G          Am                D
        mi ne vidimo dilem za vekomaj ostale so drugje,
      Em                     G                   Am              D
        in če kdo bi rad da se ima bolj, samo besede prave so dovolj.
 
Klaviature na kitari:
   Em         G           Am          D
e|------------------------------------------------|
B|---12-10-12----12-10-12----10----10----10----10-|
G|-9----------------------------12----------12----| --4x
D|------------12----------10----------12----------|
A|------------------------------------------------|
E|------------------------------------------------|
 
 
REFREN 2:  (01:55 - 02:19)
      Em           G  D     Am         Em  -----\
        Na ta lep daaan, v meni erekcija         \
                   G  Am        D                 |--2x
        se ti ne zdiiii, da ne more biti lepša. -/
 
 
BRIDGE:  (02:19 - 02:47)
         Am            D
        Mir v nas vso paniko sezuje,
          G           C
        slaba vest pozabljena,
          Am         D
        vse poti premagane za nami,
          G          C
        vse poti do konca,
         Am            D
        mir v nas vso paniko sezuje,
          G           C
        slaba vest pozabljena,
          Am         D
        vse poti premagane za nami,
          G          C    D
        vse poti do koncaaa, do koncaaa.
 
               4x
   Am      D    G       C      D   
e|-0-0-0---2----3-3-3---0----|-2----|
B|-1-1-1---3----0-0-0---1----|-3----|
G|-2-2-2---2----0-0-0---0----|-2----|
D|-2-2-2---0----0-0-0---2----|-0----|
A|-0-0-0---0----2-2-2---3----|-0----|
E|--------------3-3-3--------|------|
        M   ~~~~     M   ~~~~   ~~~~
 
 
REFREN 3:  (02:47 - 03:36)
      Em           G  D     Am         Em  -----\
        Na ta lep daaan, v meni erekcija         \
                   G  Am        D                 |--2x
        se ti ne zdiiii, da ne more biti lepša. -/
 
      Em           G  D   Am   Em
        Na ta lep daaan
                   G  Am   D
        se ti ne zdiiii
 
      Em           G  D     Am         Em
        Na ta lep daaan, v meni erekcija
                   G  Am        D
        se ti ne zdiiii, da ne more biti lepša.
 
SOLO 2:  (03:37 - 04:18)
        Em   G   D   Am \__ponavlja se do konca pesmi
        Em   G   Am  D  /
 
e|-------------------------------------------------------------|
B|-------------------------------------------------------------|
G|--------------7-9-7------------------------------------------|
D|----------7-9-------9----9-7----7--7----7-9-7----7-----------|
A|---7-9-10--------------------10------10-------10---10-7------|
E|-------------------------------------------------------------|
 
e|-------------------------------------------------------------|
B|-------------------------------------------------------------|
G|---------------7-9-7-----------------------------------------|
D|-----------7-9-------9----9-7----7--7----7-9-7----7----------|
A|----7-9-10--------------------10------10-------10------------|
E|-10----------------------------------------------------------|
 

trzalica posnetek bar

trzalica bar
 

Dodaj komentar


Varnostna koda
Osveži

  Iskanje

config