tablatura akordi besedilo   L.E. (tab)

trzalica.com besedilo akordi tablature

Legenda ikon:


Pogoji uporabe.    

besedilo z akordi besedilo z akordi
tablature tablatura (tabulatura)
tablature tablatura za bas
tablature videolekcija

GuitarPro GutarPro (GP)
note Note (v PDF formatu)
sibelius Sibelius (SIB), itd.
..

   ___________________________________________________________
  |  _______________________________________________________  |
  | |                                                       | |
  | | IZVAJALEC: .............. Siddharta                   | |
  | | PESEM: .................. L.E.                        | |
  | | ALBUM: .................. ID                          | |
  | | LETO IZIDA: ............. 1999                        | |
  | | DOMAČA STRAN: ........... www.siddharta.net           | |
  | |_______________________________________________________| |
  | |                                                       | |
  | |           Avtor transkripcije: AliAs                  | |
  | |    Domača stran transkripcije: Trzalica.com           | |
  | |  Datum nastanka transkripcije: 25.11.2007             | |
  | |_______________________________________________________| |
  |___________________________________________________________|
 
================================================================================================
 
LEGENDA ZNAKOV:
p = pull off
h = hammer on
/ = slide up
\ = slide down
¤ = harmonični ton
b = bend up za 1/2 tona
r = release bend
 
Kitara 1 = Tomi
Kitara 2 = Primož
 
PRIJEMI AKORDOV:
 
A  - X 0 2 2 2 0
Bm - X 2 4 4 3 2
D  - X 0 0 2 3 2
Em - 0 2 2 0 0 0
G  - 3 2 0 0 0 3
 
================================================================================================
www.trzalica.com    www.trzalica.com    www.trzalica.com    www.trzalica.com    www.trzalica.com
================================================================================================
 
INTRO & VERZ 1:
 
Kitara 1:
   Em              A
e|---------------------------------|
B|---------------------------------|
G|-------0---------------0---------|  -- 8x
D|-----0---0---0-------0---0---0---|
A|---7-------7-------7-------7---7-|
E|-0-------------0-5---------------|
 
Kitara 2:
   A      Em    A
e|-12-----------12-----|
B|--------7------------|
G|---------------------|
D|---------------------|
A|---------------------|
E|---------------------|
   ¤      ¤     ¤
 
   Em                    A                   Em                   A
e|-----------------------------------------------------------------15-15-14----17-15-14--|
B|--------------------------------------15----------------------------------15-----------|
G|---------12-14br-14br---------12-14br-------------12-14br-14br-------------------------|  -- 3x
D|---12-14----------------12-14---------------12-14--------------------------------------|
A|---------------------------------------------------------------------------------------|
E|---------------------------------------------------------------------------------------|
 
   Em                    A                   Em                   A
e|-----------------------------------------------------------------15-15-14--------------|
B|--------------------------------------15----------------------------------15-----------|
G|---------12-14br-14br---------12-14br-------------12-14br-14br---------------14-12-11--|
D|---12-14----------------12-14---------------12-14--------------------------------------|
A|---------------------------------------------------------------------------------------|
E|---------------------------------------------------------------------------------------|
 
 
Em                   A
"Kaj bi delal danes," ji rečem, a nazaj 
Em             A
mi odgovori, da si drugo najdem naj.
Em                 A
"No, se vidimo," in že videti je ni, 
Em                 A
vsaj minuto smeha ji ne bilo bi zaman. 
 
 
REFREN 1:
 
                         Em  A               Em
        ...ne bilo bi zaman,   ne bilo bi zaman,
     A              Em     A               Em    A
        ne bilo bi za-man,   ne bilo bi zamaaaaaaaan.
 
Kitara 1: igra akorde po besedilu zgoraj.
 
Kitara 2:
   Em                 A
e|-----12-12---------------------------|
B|-----12-12---12--14------15p14-------|
G|-----12-12---12--14---14-------14----|  -- 4x
D|----------------------------------14-|
A|-------------------------------------|
E|-0-----------------------------------|
 
 
VERZ 2:
 
Kitara 1:
   Em              A
e|---------------------------------|
B|---------------------------------|
G|-------0---------------0---------|  -- 10x
D|-----0---0---0-------0---0---0---|
A|---7-------7-------7-------7---7-|
E|-0-------------0-5---------------|
 
Kitara 2:
   Em                    A                          Em               A
e|------------------------------------------------------------------------|
B|------------------15----------------------------------------------------|
G|-------12-14-14br----14--12----12---------------------------------------|
D|-12/14----------------------14-----14-12h14p12----12---12h14p12----14---|
A|-----------------------------------------------14---------------14------|
E|------------------------------------------------------------------------|
 
   Em                    A                   Em                   A
e|-----------------------------------------------------------------15-15-14----17-15-14--|
B|--------------------------------------------------------------------------15-----------|
G|---------12-14br-14br---------12-14br-------------12-14br-14br-------------------------|
D|---12-14----------------12-14---------------12-14--------------------------------------|
A|---------------------------------------------------------------------------------------|
E|---------------------------------------------------------------------------------------|
 
   Em                    A                   Em                   A
e|---------------------------------------------------------------------------------------|
B|---------------------------------------------------------------------------------------|
G|---------12-14br-14br---------12------------------12-------------------12--------------|
D|---12-14----------------12-14---------------12-14----------------12-14-----------------|
A|---------------------------------------------------------------------------------------|
E|---------------------------------------------------------------------------------------|
 
   Em                    A                   Em                   A
e|---------------------------------------------------------------------------------------|
B|---------------------------------------------------------------------------------------|
G|---------12-------------------12--14br------------12-------------------12--14br--------|
D|---12-14----------------12-14---------------12-14----------------12-14-----------------|
A|---------------------------------------------------------------------------------------|
E|---------------------------------------------------------------------------------------|
 
   Em                    A                   Em                   A
e|-----------------------------------------------------------------15-15-14--------------|
B|--------------------------------------15----------------------------------15-----------|
G|---------12-14br-14br---------12-14br-------------12-14br-14br---------------14-12-11--|
D|---12-14----------------12-14---------------12-14--------------------------------------|
A|---------------------------------------------------------------------------------------|
E|---------------------------------------------------------------------------------------|
 
 
Em                A                   Em
Sam po mestu hodim kolega srečam, a pravi,
               A                      Em   A  Em  A
da ima doma otroke, ženo, hišo in še psa.
Em                 A
Korak ustavi se pri dekletu tujemu,
Em                  A
vse je kot namazano, dokler obnemi ji um.
Em                 A
Dovolj mi je vsega, si rečem preden sam
Em                   A
daleč stran odpeljem in le krila misli me neso...
 
 
REFREN 2:
 
                               Em  A                     Em
        ...le krila misli me neso,   le krila misli me neso,
     A                      Em   A                     Em    A  D... (Bridge)
        le krila misli me ne-so,   le krila misli me nesoooooooo.
 
Kitara 1: igra akorde po besedilu zgoraj.
 
Kitara 2:
   Em                 A
e|-----12-12---------------------------|
B|-----12-12---12--14------15p14-------|
G|-----12-12---12--14---14-------14----|  -- 4x
D|----------------------------------14-|
A|-------------------------------------|
E|-0-----------------------------------|
 
 
BRIDGE:
 
Obe kitari:
   D
e|-2-------|
B|-3-------|
G|-2-------|
D|-0-------|
A|-0-------|
E|---------|
    ~~~~~~~
 
   Em                              D
e|-------------------------------------------------------------------|
B|-------------------------------------------------------------------|
G|---------0---------------0----------------0----------------0-------|  -- 4x
D|-----9-----9---9-----9-----9---9------9-----9---9------9-----9---9-|
A|---7---7-----7-----7---7-----7------7---7-----7------7---7-----7---|
E|-0---------------0---------------10---------------10---------------|
 
        Em              D
        Glej, sij in v temi nato zaspi.
        Em             D
        Smej, poj, in žarek podari svoj.
                              ___________________________
         Em            D                                 \
        Sam vem, da nikoli me ne pustiš.                  \
         Em                      D                         \__ Obe kitari igrata akorde!
        Ostalim vedno se mudi a tebi do tega ni o ni jea.  /
                                                          /
        Em   G Bm A   > 4x    ___________________________/
 
 
SOLO:
 
Kitara 1:
   Em           A             Em                    A
e|---12-12--12--------------------------------------------------------|
B|---12-12--14--14---15--14---12----------------12-----14-------------|
G|---12-12------14---14--14------14-12-14-11-12----14-----14----------|
D|------------------------------------------------------------14-14---|
A|--------------------------------------------------------------------|
E|--------------------------------------------------------------------|
 
   Em                   A              Em             A
e|---------------------------------------------------------------------|
B|---------------------------------------------------------------------|
G|-12\11-11\-9--9\7-7\6-6\4-4\2-2\0-2-2----0-0----0-0-4-0-7-0-9-0-11-0-|                           
D|-14\12-12\11-11\9-9\7-7\5-5\4-4\2------2------2----------------------|
A|---------------------------------------------------------------------|
E|---------------------------------------------------------------------|
 
   Em                  A                    Em                A
e|--------12-----------15p12---------------------12-----------15p12-----------------|
B|-12--12-12--12----12------12----14---14-14--12-----12----12------12----14---14-14-|
G|-12--12--------12------------12-14b--14-14--12--------12------------12-14b--14-14-|
D|----------------------------------------------------------------------------------|
A|----------------------------------------------------------------------------------|
E|----------------------------------------------------------------------------------|
 
   Em               A                    Em                   A                    Em
e|---------12-------15p12----------------15p12----------------15p12-------------------|
B|--12-12-----12---------12----14---12-12-----12----14---12-12-----12----14---14-14\\-|
G|--12-12--------12---------12-14b--12-12--------12-14b--12-12--------12-14b--14-14\\-|
D|------------------------------------------------------------------------------------|
A|------------------------------------------------------------------------------------|
E|------------------------------------------------------------------------------------|
 
Kitara 2:
   Em              A
e|---------------------------------|
B|---------------------------------|
G|-------0---------------0---------|  -- 2x
D|-----0---0---0-------0---0---0---|
A|---7-------7-------7-------7---7-|
E|-0-------------0-5---------------|
 
 
VERZ 3:
 
Em  A  > 2x
Em                  A
Pride čas, ko zaživim v vetru,
     Em                A
saj le predolgo že lovim ta prave si ljudi.
  Em               A
Zlahka ali pa težko,
             Em    A  Em    A
samo da vse fino je, fino je
 
Kitara 1: igra akorde po besedilu zgoraj.
 
Kitara 2:
   Em                A
e|-----12-12---12-------------------|
B|-----12-12---14--14---------------|
G|-----12-12---14--14---------------|  -- 2x
D|----------------------------------|
A|----------------------------------|
E|-0--------------------------------|
 
   Em                   A
e|----------------------------------------------|
B|----------------------------------------------|
G|---------12-14-12-------------12-14-14br-12---|  -- 3x
D|---12/14----------------12/14-----------------|
A|----------------------------------------------|
E|----------------------------------------------|
 
   Em                   A                       Em                        A
e|-----------------------------------------------------------------------------------------------|
B|-----------------------------------------------------------------------------------------------|
G|---------12-14-12-----------12-14-14br-12-----------12-14-14br-12-----------12-14-14br-12------|
D|---12/14-----------------14---------------14-----14---------------14-----14--------------------|
A|-----------------------------------------------------------------------------------------------|
E|-----------------------------------------------------------------------------------------------|
 
 
REFREN 3:
 
         Em     A     Em     A     Em     A     Em     A
        Fiiino jeee, fiiino jeee, fiiino jeee, fiiino jeee,
         Em     A     Em     A     Em     A    Em     A    Em
        FIIINO JEEE, FIIINO JEEE, FIIINO JEEEEEEEEEEEEEEEEEEE
 
Kitara 1: igra akorde po besedilu zgoraj.
 
Kitara 2:
   Em                      A                     Em                      A
e|--------------------------------------------------------------------------------------------|
B|--------------------------------------------------------------------------------------------|
G|-------12-14-14br-12-----------12-14-14br-12---------12-14-14br-12-----------12-14b---------|
D|----14---------------14-----14--------------------14---------------14-----14----------------|
A|--------------------------------------------------------------------------------------------|
E|--------------------------------------------------------------------------------------------|
 
   Em                                A
e|----------------------------------------------------|
B|------------------------------------15--------------|
G|-14p12--12-14p12--12-14p12--12-14b------14b-r-12----|  -- 2x
D|------14--------14--------14------------------------|
A|----------------------------------------------------|
E|----------------------------------------------------|
 
   Em                 A
e|-----12-12---------------------------|
B|-----12-12---12--14------15p14-------|
G|-----12-12---12--14---14-------14----|  -- 3x
D|----------------------------------14-|
A|-------------------------------------|
E|-0-----------------------------------|
 
   Em                 A                Em
e|-----12-12---------------------------12-------------|
B|-----12-12---12--14------15p14-------12-------------|
G|-----12-12---12--14---14-------14----12-------------|
D|----------------------------------14----------------|
A|----------------------------------------------------|
E|-0--------------------------------------------------|
 

trzalica posnetek bar

trzalica bar
 

Dodaj komentar


Varnostna koda
Osveži

  Iskanje

config