tablatura akordi besedilo   Le mavrica (tab)

trzalica.com besedilo akordi tablature

Legenda ikon:


Pogoji uporabe.    

besedilo z akordi besedilo z akordi
tablature tablatura (tabulatura)
tablature tablatura za bas
tablature videolekcija

GuitarPro GutarPro (GP)
note Note (v PDF formatu)
sibelius Sibelius (SIB), itd.
..

 _______________________________________________________
|                                                       |
| IZVAJALEC: ............................... Siddharta  |
| PESEM: ................................... Le mavrica |
| ALBUM: ................................... ID         |
| LETO IZIDA: .............................. 1997       |
|_______________________________________________________|
|                                                       |
|  Avtor transkripcije: AliAs                           |
|  Domača stran transkripcije: Trzalica.com             |
|  Datum nastanka transkripcije: 6.4.2007               |
|_______________________________________________________|
 
================================================================================================
 
LEGENDA ZNAKOV:
M = MUTE
× = palm muted
X = Muffled
~ = let ring
p = pull off
h = hammer on
/ = slide up
\ = slide down
v = vibrated
 
================================================================================================
 
INTRO:
 
   Dm
e|--------------------------------------------------------------------------------------------------X-X-|
B|--------------------------------------------------------------------------------------------------X-X-|
G|/7-7-7-9-9-9-10101012121210h12p10\9-9-10109\7-7-7-5-5-5-7-7-7-7-7-7-7-7-7-5-5-5-7-7-7-7-7-7-7-7-7-X-X-|
D|-0-0-0-0-0-0-0-0-0-0-0-0-0--------0-0-0-0-0-0-0-0-0-0-0-0-0-0-0-0-0-0-0-0-0-0-0-0-0-0-0-0-0-0-0-0-X-X-|
A|--------------------------------------------------------------------------------------------------X-X-|
E|--------------------------------------------------------------------------------------------------X-X-|
 
            3x
   A#         Dm           A#         Dm
e|-----------------------|------------------------------|
B|-----------------------|------------------------------|
G|-3--3-3-3-3-7--7-7-7-7-|-3--3-3-3-3/14-14-14-14-14-14\|
D|-3--3-3-3-3-7--7-7-7-7-|-3--3-3-3-3-------------------|
A|-1--1-1-1-1-5--5-5-5-5-|-1--1-1-1-1/12-12-12-12-12-12\|
E|-----------------------|------------------------------|
 
            3x
   A#         Dm           C
e|-----------------------|----------------------------|
B|-----------------------|----------------------------|
G|-3--3-3-3-3-7--7-7-7-7-|-5--------------2-----------|
D|-3--3-3-3-3-7--7-7-7-7-|-5---2-3--5--5----5-3-2-----|
A|-1--1-1-1-1-5--5-5-5-5-|-3----------------------5-3-|
E|-----------------------|----------------------------|
 
 
VERZ 1:
 
   Dm    C   Dm      C       Dm     C   A#
Rojen otrok,    to edino dekle v familiji.
    Dm     C  Dm     C     Dm         C    A#
Ne vem, zakaj    slabo o njej slišim, a potem:
        C     A#
Vidim njen obraz in telo,
    C      A#
v oči ji zrem, modro nebo
      C     A#       C    A
in v duši vse drugo je kot zlo.
 
         2x
   Dm     C       Dm     C       A#
e|--------------|-------------------------------|
B|-----6v---5---|-----6v---5-------------8------|
G|----7-----5---|----7-----5-----------7---10---|
D|---7----------|---7---------7--8p7h8----------|
A|-5------------|-5-----------------------------|
E|--------------|-------------------------------|
   ××××   M       ××××   M
 
         2x
   Dm     C       Dm     C       A#                   C
e|--------------|--------------------------------------------|
B|-----6v---5---|-----6v---5-------------8------------8------|
G|----7-----5---|----7-----5-----------7---10----7-10---10---|
D|---7----------|---7---------7--8p7h8-----------------------|
A|-5------------|-5------------------------------------------|
E|--------------|--------------------------------------------|
   ××××   M       ××××   M
 
               2x
   A#                     C    A#     C    A
e|---------------------------|-------------5--5-5-5-5-5--5-5-5-5-5--5-5-5-5-5-5-5-5-5-5-|
B|---------------------------|-------------5--5-5-5-5-5--5-5-5-5-5--5-5-5-5-5-5-5-5-5-5-|
G|-10-9-7--------------------|-10-9-7------6--6-6-6-6-6--6-6-6-6-6--6-6-6-6-6-6-6-6-6-6-|
D|--------8h10p8----7-8---9--|--------10---7--7-7-7-7-7--7-7-7-7-7--7-7-7-7-7-7-7-7-7-7-|
A|---------------10----------|-------------7--7-7-7-7-7--7-7-7-7-7--7-7-7-7-7-7-7-7-7-7-|
E|---------------------------|-------------5--5-5-5-5-5--5-5-5-5-5--5-5-5-5-5-5-5-5-5-5-|
 
 
REFREN 1:
 
          A#     Dm       A#     Dm
In le te divje oči in to noro telo,
    A#     Dm             C
ne vem, kako na nogah stojim?
  A#    Dm          A#           Dm
Ubit razum, kako zabilo mi je srce,
         A#               Dm          C
samo še danes sem tak a drugi dan znorim.
 
            3x                                                3x
   A#         Dm           C                        A#         Dm           C
e|-----------------------|------------------------|-----------------------|----------------------------|
B|-----------------------|------------------------|-----------------------|----------------------------|
G|-3--3-3-3-3-7--7-7-7-7-|-5--5-5-5-7-7-9-9-9-9-9-|-3--3-3-3-3-7--7-7-7-7-|-5--------------2-----------|
D|-3--3-3-3-3-7--7-7-7-7-|-5--5-------------------|-3--3-3-3-3-7--7-7-7-7-|-5---2-3--5--5----5-3-2-----|
A|-1--1-1-1-1-5--5-5-5-5-|-3--3-3-3-5-5-7-7-7-7-7-|-1--1-1-1-1-5--5-5-5-5-|-3----------------------5-3-|
E|-----------------------|------------------------|-----------------------|----------------------------|
 
 
VERZ 2:
Tabulatura je ista kot v prvem verzu.
 
    Dm    C   Dm    C       Dm      C    A#
Zvečer junak,    a zajec v grmu sem v temi.
    Dm       C   Dm        C     Dm        C      A#
Do kam naj grem,    da ne bom ostal brez vseh sledi?
       C     A#
A le njen obris sanjam, ko spim.
        C     A#
In le glas iz ust njenih lovim.
      C     A#      C   A
Do nadaljnega komajda živim.
 
 
REFREN 2:
 
    A#      Dm        A#            Dm
Me rana skeli, zaledenela me kri napaja,
    A#          Dm           C
preveliko dozo lepega sem dobil.
         A#     Dm       A#          Dm
A, ko pomislim le, da v bistvu sem srečen,
   A#         Dm            C
v barvah je naenkrat spet vse...
 
  (A#  Dm  C  ) 2x
  (C  Cadd11) 4x
C
 
            3x                                                3x                8x
   A#         Dm           C                        A#         Dm           C
e|-----------------------|------------------------|-----------------------|------------|
B|-----------------------|------------------------|-----------------------|------------|
G|-3--3-3-3-3-7--7-7-7-7-|-5--5-5-5-7-7-9-9-9-9-9-|-3--3-3-3-3-7--7-7-7-7-|-5--5-5-5-5-|
D|-3--3-3-3-3-7--7-7-7-7-|-5--5-------------------|-3--3-3-3-3-7--7-7-7-7-|-5--5-5-5-5-|
A|-1--1-1-1-1-5--5-5-5-5-|-3--3-3-3-5-5-7-7-7-7-7-|-1--1-1-1-1-5--5-5-5-5-|-3--3-3-3-3-|
E|-----------------------|------------------------|-----------------------|------------|
 
                        2x
   A#         Dm         C                       A#         Dm         C
e|---------------------------------------------|------------------------------------------------|
B|---------------------------------------------|------------------------------------------------|
G|-3--3-3-3-3-7--7-7-7-7-5--5-5-5-5-5--5-5-5-5-|-3--3-3-3-3-7--7-7-7-7--------------------------|
D|-3--3-3-3-3-7--7-7-7-7-5--5-5-5-5-5--5-5-5-5-|-3--3-3-3-3-7--7-7-7-7-5------------------------|
A|-1--1-1-1-1-5--5-5-5-5-3--3-3-3-3-3--3-3-3-3-|-1--1-1-1-1-5--5-5-5-5-3------------------------|
E|---------------------------------------------|-----------------------3------------------------|
 
Akustična kitara (Tomi) pa na zadnji C power
akord v zgornji tabulaturi začne igrati naslednje:
             4x
   C          Cadd11       C
e|-0--0-0-0-0-0--0-0-0-0-|-0-----------|
B|-1--1-1-1-1-1--1-1-1-1-|-1-----------|
G|-0--0-0-0-0-0--0-0-0-0-|-0-----------|
D|-2--2-2-2-2-3--3-3-3-3-|-2-----------|
A|-3--3-3-3-3-3--3-3-3-3-|-3-----------|
E|-----------------------|-------------|
 
 
OUTRO:
 
Akustična kitara nadaljuje z akordi (glej besedilo
z akordi spodaj), eletrična kitara (Primož) pa igra solo:
 
      3x
e|-----------|-----------------------------------------------|
B|-10v--11v--|-10v--6-8-10-8v--6v--5v--5-6-8-6v--5v--6v--8v--|
G|-----------|-----------------------------------------------|
D|-----------|-----------------------------------------------|
A|-----------|-----------------------------------------------|
E|-----------|-----------------------------------------------|
 
      3x
e|-----------|-----------------------------------------------|
B|-10v--11v--|-10v--6-8-10-8v--6v--5v--5-6-8-6v--5v--6v------|
G|-----------|-----------------------------------------------|
D|-----------|-----------------------------------------------|
A|-----------|-----------------------------------------------|
E|-----------|-----------------------------------------------|
 
          F                           Dm
In še naprej, le mavrica vse bolj bledi,
                     C
morda le nebo se temni,
                         A#
jaz vidim le par, ki odslej
                          F
z rokami se zdravi in poglej,
                      Dm
te roke so v ustih bile
                        C
in nič ne boli je le način,
                      A#
polepša ti dan in spomin,
le juban ti besno, le juban ti besno, le juban ti besno
        F  C  A#             F  C  A#           F  C  A#
daj še tiiiiiiii, oo daj še tiiiiiiiii, daj še tiiiiiiii,
                Dm      A#     Dm           A#          Dm    A#    Dm
Je zame arest azil? Je zame arest azil? Je zame arest azil? 
 

trzalica posnetek bar

trzalica bar
 

Dodaj komentar


Varnostna koda
Osveži

  Iskanje

config