tablatura akordi besedilo   Madam (tab)

trzalica.com besedilo akordi tablature

Legenda ikon:


Pogoji uporabe.    

besedilo z akordi besedilo z akordi
tablature tablatura (tabulatura)
tablature tablatura za bas
tablature videolekcija

GuitarPro GutarPro (GP)
note Note (v PDF formatu)
sibelius Sibelius (SIB), itd.
..

   ___________________________________________________________
  |  _______________________________________________________  |
  | |                                                       | |
  | | IZVAJALEC: .............. Siddharta                   | |
  | | PESEM: .................. Madam                       | |
  | | ALBUM: .................. Saga                        | |
  | | LETO IZIDA: ............. 2009                        | |
  | | DOMAČA STRAN: ........... www.siddharta.net           | |
  | |_______________________________________________________| |
  | |                                                       | |
  | |           Avtor transkripcije: AliAs                  | |
  | |    Domača stran transkripcije: Trzalica.com           | |
  | |  Datum nastanka transkripcije: 16.5.2010              | |
  | |_______________________________________________________| |
  |___________________________________________________________|
 
================================================================================================
 
LEGENDA ZNAKOV:
br= bend za 1/2 tona, nato release
× = palm muted
X = Muffled
. = tremolo ubiranje
p = pull off
h = hammer on
/ = slide up
\ = slide down
 
PRIJEMI AKORDOV:
 
A#     - X 1 3 3 3 X
C      - X 3 5 5 5 X
C#m    - X 4 6 6 5 4
D      - X 5 7 7 7 X
E      - 0 2 2 1 0 0
E7M    - 0 2 1 1 0 0
E7     - 0 2 0 1 0 0
Esus4  - 0 2 2 2 0 0
F#m    - 2 4 4 2 2 2
F#sus4 - 2 4 4 4 2 2
G      - 3 5 5 4 3 3
H      - X 2 4 4 4 X
H7     - X 2 1 2 0 2
 
 
================================================================================================
www.trzalica.com    www.trzalica.com    www.trzalica.com    www.trzalica.com    www.trzalica.com
================================================================================================
 
 
UVOD:
 
   E            E7M                          E7        Esus4
e|----------------------------------------------------------------------------|
B|----------------------------------------------------------------------------|
G|----------------------------------------------------------------------------|
D|----14--------13--13-13--13-13-13-13-------12--------11--11-11--11-11-11-11-|
A|----14--------14--14-14--14-14-14-14-------14--------12--12-12--12-12-12-12-|
E|-0--0---0-0-0-0---0--0---0--0--0--0--0-0-0-0---0-0-0-0---0--0---0--0--0--0--|
          ×××××                        ×××××     ×××××
 
   E               E7M                          E7        Esus4
e|-------------------------------------------------------------------------------|
B|-------------------------------------------------------------------------------|
G|-------------------------------------------------------------------------------|
D|-------14--------13--13-13--13-13-13-13-------12--------11--11-11--11-11-11-11-|
A|-------14--------14--14-14--14-14-14-14-------14--------12--12-12--12-12-12-12-|
E|-0-0-0-0---0-0-0-0---0--0---0--0--0--0--0-0-0-0---0-0-0-0---0--0---0--0--0--0--|
   ×××××     ×××××                        ×××××     ×××××
 
 
VERZ 1:
 
   E               E7M                          E7        Esus4
e|-------------------------------------------------------------------------------|
B|-------------------------------------------------------------------------------|
G|-------------------------------------------------------------------------------|  -- 2x
D|-------14--------13--13-13--13-13-13-13-------12--------11--11-11--11-11-11-11-|
A|-------14--------14--14-14--14-14-14-14-------14--------12--12-12--12-12-12-12-|
E|-0-0-0-0---0-0-0-0---0--0---0--0--0--0--0-0-0-0---0-0-0-0---0--0---0--0--0--0--|
   ×××××     ×××××                        ×××××     ×××××
 
   F#m                F#sus4
e|-----------------------------------------|
B|---------10--10-10--12-12-12-12-12-12-12-|
G|---------11--11-11--11-11-11-11-11-11-11-|
D|-11--11--11--11-11-----------------------|
A|-9---9---9---9--9---9--9--9--9--9--9--9--|
E|-----------------------------------------|
 
    E
Po robu hodim nekaj me boli
nikogar ne poznam
in kot da sreče nočem videti
je čas da se predam
   F#m   F#sus4
uuuuuuu,  uuuuuuuu
 
Kitara 1:
   E               E7M                          E7        Esus4
e|-------------------------------------------------------------------------------|
B|-------------------------------------------------------------------------------|
G|-------------------------------------------------------------------------------|  -- 2x
D|-------14--------13--13-13--13-13-13-13-------12--------11--11-11--11-11-11-11-|
A|-------14--------14--14-14--14-14-14-14-------14--------12--12-12--12-12-12-12-|
E|-0-0-0-0---0-0-0-0---0--0---0--0--0--0--0-0-0-0---0-0-0-0---0--0---0--0--0--0--|
   ×××××     ×××××                        ×××××     ×××××
 
Kitara 2:
   E        E7M  E7       Esus4
e|-----------------------------|
B|-----------------------------|
G|-9-----9--8----7-----7--6----|  -- 2x
D|----9-------------9----------|
A|-----------------------------|
E|-----------------------------|
 
   E
v temi krožim dolgo že ne spim
in nekaj me lovi
nevidne sence opazujejo
borim se s paniko
   F#m   F#sus4
uuuuuuu,  uuuuuuuu
 
Kitara 1:
   E               E7M                          E7        Esus4
e|-------------------------------------------------------------------------------|
B|-------------------------------------------------------------------------------|
G|-------------------------------------------------------------------------------|  -- 2x
D|-------14--------13--13-13--13-13-13-13-------12--------11--11-11--11-11-11-11-|
A|-------14--------14--14-14--14-14-14-14-------14--------12--12-12--12-12-12-12-|
E|-0-0-0-0---0-0-0-0---0--0---0--0--0--0--0-0-0-0---0-0-0-0---0--0---0--0--0--0--|
   ×××××     ×××××                        ×××××     ×××××
 
Kitara 2:
   E        E7M  E7       Esus4
e|-----------------------------|
B|-----------------------------|
G|-9-----9--8----7-----7--6----|  -- 2x
D|----9-------------9----------|
A|-----------------------------|
E|-----------------------------|
 
        D           F#m
in ko naenkrat se obrnejo stvari
    H
odprem oči
 
   D              F#m                   H
e|-----------------------------------------------------|
B|-----------------------------------------------------|
G|-7--7-7-7-7-7-7-11--11-11-11-11-11-11----------------|
D|-7--7-7-7-7-7-7-11--11-11-11-11-11-11-9--9-X-X-9--9--|
A|-5--5-5-5-5-5-5-9---9--9--9--9--9--9--9--9-X-X-9--9--|
E|--------------------------------------7--7-X-x-7--7--|
 
 
REFREN 1:
 
            E   D
saj tu in zdaj
            C          A
saj tu in zdaj je življenje
            E   D
saj tu in zdaj
            A#         G
saj tu in zdaj je življenje
 
         E                D               C               A
e|-XXX--XX----------------------------------------------------------------|
B|-XXX--XX----------------------------------------------------------------|
G|-XXX--XX9-9-9-9-9-9-9-9-7-7-7-7-7-7-7-7-5-5-5-5-5-5-5-5-2-2-2-2-2-2-2-2-|
D|-XXX--XX9-9-9-9-9-9-9-9-7-7-7-7-7-7-7-7-5-5-5-5-5-5-5-5-2-2-2-2-2-2-2-2-|
A|-XXX--XX7-7-7-7-7-7-7-7-5-5-5-5-5-5-5-5-3-3-3-3-3-3-3-3-0-0-0-0-0-0-0-0-|
E|-XXX--XX----------------------------------------------------------------|
 
   E               D               A#              G
e|-----------------------------------------------------------------|
B|-----------------------------------------------------------------|
G|-9-9-9-9-9-9-9-9-7-7-7-7-7-7-7-7-3-3-3-3-3-3-3-3-----------------|
D|-9-9-9-9-9-9-9-9-7-7-7-7-7-7-7-7-3-3-3-3-3-3-3-3-5-5-5-5-5-5-5-5-|
A|-7-7-7-7-7-7-7-7-5-5-5-5-5-5-5-5-1-1-1-1-1-1-1-1-5-5-5-5-5-5-5-5-|
E|-------------------------------------------------3-3-3-3-3-3-3-3-|
 
 
VERZ 2:
 
Kitara 1:
   E          E7M                E7      Esus4
e|-------------------------------------------------------|
B|-------------------------------------------------------|
G|-------------------------------------------------------|  -- 2x
D|----14br----13--13----13br-----12br----11--11----11br--|
A|-------------------------------------------------------|
E|-0--------0---------0-------0--------0---------0-------|
 
Kitara 2:
   E           E7M      E7          Esus4   E           E7M      E7          Esus4
e|------------------------------------------------------------------------------------|
B|-17------17--16-------15------15--14------17------17--19-------15------15--14-------|
G|-----16----------16-------16------------------16----------16-------16---------------|
D|------------------------------------------------------------------------------------|
A|------------------------------------------------------------------------------------|
E|------------------------------------------------------------------------------------|
 
Kitara 1:
   E               E7M                          E7        Esus4
e|-------------------------------------------------------------------------------|
B|-------------------------------------------------------------------------------|
G|-------------------------------------------------------------------------------|  -- 2x
D|-------14--------13--13-13--13-13-13-13-------12--------11--11-11--11-11-11-11-|
A|-------14--------14--14-14--14-14-14-14-------14--------12--12-12--12-12-12-12-|
E|-0-0-0-0---0-0-0-0---0--0---0--0--0--0--0-0-0-0---0-0-0-0---0--0---0--0--0--0--|
   ×××××     ×××××                        ×××××     ×××××
 
   F#m                F#sus4
e|-----------------------------------------|
B|---------10--10-10--12-12-12-12-12-12-12-|
G|---------11--11-11--11-11-11-11-11-11-11-|
D|-11--11--11--11-11-----------------------|
A|-9---9---9---9--9---9--9--9--9--9--9--9--|
E|-----------------------------------------|
 
Kitara 2:      2x
   E        E7M  E7       Esus4  F#m       F#sus4
e|-----------------------------|-----------------|
B|-----------------------------|-----------------|
G|-9-----9--8----7-----7--6----|---------9-11----|
D|----9-------------9----------|----11-----------|
A|-----------------------------|-9---------------|
E|-----------------------------|-----------------|
 
   E
objamem sonce to ogreje me
zavijam iz teme
svetlobe niso vajene oči
zato še kar mižim
   F#m   F#sus4
uuuuuuu,  uuuuuuuu
 
Kitara 1:
   E               E7M                          E7        Esus4
e|-------------------------------------------------------------------------------|
B|-------------------------------------------------------------------------------|
G|-------------------------------------------------------------------------------|  -- 3x
D|-------14--------13--13-13--13-13-13-13-------12--------11--11-11--11-11-11-11-|
A|-------14--------14--14-14--14-14-14-14-------14--------12--12-12--12-12-12-12-|
E|-0-0-0-0---0-0-0-0---0--0---0--0--0--0--0-0-0-0---0-0-0-0---0--0---0--0--0--0--|
   ×××××     ×××××                        ×××××     ×××××
 
Kitara 2:      2x
   E        E7M  E7       Esus4  E        E7M    E7       Esus4
e|-----------------------------|-------------------------------|
B|-----------------------------|----------7--------------------|
G|-9-----9--8----7-----7--6----|-9-----9---------7-----7--6----|
D|----9-------------9----------|----9--------9------9----------|
A|-----------------------------|-------------------------------|
E|-----------------------------|-------------------------------|
 
   E
počasi spet prihaja upanje
in morje spet diši
ponovno vidim barve mavrice
ponovno mirno spim
 
         F#m
dolgo tega
       C#m
polno solza
            D
a zdaj je svet
          H7
velik in lep
 
 
SOLO:
   E                   D                     A#                 G
e|--------------------------------------------------------------------------------------|
B|--------------------------------------------------------------------------------------|
G|--------------------------------------12---------------------------------14-12-14-12--|
D|-12---14-12-14-12-14---12-14-12-14-12------12---14-12-14-12-14--12-14-12--------------|
A|--------------------------------------------------------------------------------------|
E|--------------------------------------------------------------------------------------|
 
   E                 D                    C                    A
e|--------------------------------------------------------------------------------------|
B|----12----------15--------12---------------10----10----10-12--12/15----15-17-17-15-17-|
G|-14----14-12/14-----12/14----14-12--12--12----12----12--------------16----------------|
D|--------------------------------------------------------------------------------------|
A|--------------------------------------------------------------------------------------|
E|--------------------------------------------------------------------------------------|
 
   E                D                       A#                G
e|----------------------------------15-15-------------------------15-15--17-17-19-19---|
B|--17-15-17-17-17-17--15-17-17--17--------15-17-17--15-17-17--17----------------------|
G|-------------------------------------------------------------------------------------|
D|-------------------------------------------------------------------------------------|
A|-------------------------------------------------------------------------------------|
E|-------------------------------------------------------------------------------------|
 
   E      D        C        A
e|-19...----18...--(19p18)...-------|
B|----------------------------------|
G|----------------------------------|
D|----------------------------------|
A|----------------------------------|
E|----------------------------------|
 
 
Prehod v Refren 2:
 
A                   C#m
kadar naenkrat se obrnejo stvari
 G F#m  G F#m
odprem oči
 
   A               C#m             G  F#m    G  F#m
e|---------------------------------------X-X-----------|
B|---------------------------------------X-X-----------|
G|-2-2-2-2-2-2-2-2-6-6-6-6-6-6-6-6-------X-X-----------|
D|-2-2-2-2-2-2-2-2-6-6-6-6-6-6-6-6-5--4--X-X-5--4------|
A|-0-0-0-0-0-0-0-0-4-4-4-4-4-4-4-4-5--4--X-X-5--4------|
E|---------------------------------3--2--X-X-3--2------|
 
 
REFREN 2:
 
            E   D
saj tu in zdaj
            C          A
saj tu in zdaj je življenje
            E   D
saj tu in zdaj
            A#         G
saj tu in zdaj je življenje
            E   F#
saj tu in zdaj
            G          A
saj tu in zdaj je življenje
            E   D
saj tu in zdaj
            A#         G
saj tu in zdaj je življenje
           E
tukaj in zdaj
 
         E                D               C               A
e|-XXX--XX----------------------------------------------------------------|
B|-XXX--XX----------------------------------------------------------------|
G|-XXX--XX9-9-9-9-9-9-9-9-7-7-7-7-7-7-7-7-5-5-5-5-5-5-5-5-2-2-2-2-2-2-2-2-|
D|-XXX--XX9-9-9-9-9-9-9-9-7-7-7-7-7-7-7-7-5-5-5-5-5-5-5-5-2-2-2-2-2-2-2-2-|
A|-XXX--XX7-7-7-7-7-7-7-7-5-5-5-5-5-5-5-5-3-3-3-3-3-3-3-3-0-0-0-0-0-0-0-0-|
E|-XXX--XX----------------------------------------------------------------|
 
   E               D               A#              G
e|-----------------------------------------------------------------|
B|-----------------------------------------------------------------|
G|-9-9-9-9-9-9-9-9-7-7-7-7-7-7-7-7-3-3-3-3-3-3-3-3-----------------|
D|-9-9-9-9-9-9-9-9-7-7-7-7-7-7-7-7-3-3-3-3-3-3-3-3-5-5-5-5-5-5-5-5-|
A|-7-7-7-7-7-7-7-7-5-5-5-5-5-5-5-5-1-1-1-1-1-1-1-1-5-5-5-5-5-5-5-5-|
E|-------------------------------------------------3-3-3-3-3-3-3-3-|
 
   E               F#               G              A
e|------------------------------------------------------------------|
B|------------------------------------------------------------------|
G|-9-9-9-9-9-9-9-9-111111111111111112121212121212121414141414141414-|
D|-9-9-9-9-9-9-9-9-111111111111111112121212121212121414141414141414-|
A|-7-7-7-7-7-7-7-7-9-9-9-9-9-9-9-9-10101010101010101212121212121212-|
E|------------------------------------------------------------------|
 
   E               D               A#              G
e|-----------------------------------------------------------------|
B|-----------------------------------------------------------------|
G|-9-9-9-9-9-9-9-9-7-7-7-7-7-7-7-7-3-3-3-3-3-3-3-3-----------------|
D|-9-9-9-9-9-9-9-9-7-7-7-7-7-7-7-7-3-3-3-3-3-3-3-3-5-5-5-5-5-5-5-5-|
A|-7-7-7-7-7-7-7-7-5-5-5-5-5-5-5-5-1-1-1-1-1-1-1-1-5-5-5-5-5-5-5-5-|
E|-------------------------------------------------3-3-3-3-3-3-3-3-|
 
   G                               E
e|------------------------------------------------|
B|------------------------------------------------|
G|------------------------------------------------|
D|-5-5-5-5-5-5-5-5-5-5-5-5-5-5-5-5-2--------------|
A|-5-5-5-5-5-5-5-5-5-5-5-5-5-5-5-5-2--------------|
E|-3-3-3-3-3-3-3-3-3-3-3-3-3-3-3-3-0--------------|
 

trzalica posnetek bar

trzalica bar
 

Dodaj komentar


Varnostna koda
Osveži

  Iskanje

config