besedilo  Na soncu (bas)

trzalica.com besedilo akordi tablature

Legenda ikon:


Pogoji uporabe.    

besedilo z akordi besedilo z akordi
tablature tablatura (tabulatura)
tablature tablatura za bas
tablature videolekcija

GuitarPro GutarPro (GP)
note Note (v PDF formatu)
sibelius Sibelius (SIB), itd.
..

Oglej si še:

  Siddharta
tablatura akordi besedilo  Na soncu (tab)
videolekcija Na soncu

trzalica bar

Siddharta - Na soncu (bas tab)

Uglasitev standardna (E,A,D,G).


Bas kitara zacne igrat po odpeti prvi kitici (0:31):

G------------------------------------------|
D----------4---------------4---------------|
A--7---2--2-2--4---7---2--2-2--4----4-2-2-2|
E-5-5-0-0-----2-2-5-5-0-0-----2-0-2--------|

Refren:

G----------------------------------------------------------------------------------|
D----------------------------------------------------------------------------------|
A-55555555----------44444444----------55555555----------44444444--------42-7-5-4-2-|
E----------55555555----------22222222----------55555555----------2222202-----------|

Ponovno verz:

G---------------------------------
D----------4---------------4------
A--7---2--2-2--4---7---2--2-2--4--
E-5-5-0-0-----2-2-5-5-0-0-----2-2-

G-------------------------------------------|
D----------4---------------4----------------|
A--7---2--2-2--4---7---2--2-2--4----4-2-2-2-|
E-5-5-0-0-----2-2-5-5-0-0-----2-0-2---------|

Refren:

G-------------------------------------------------------------------------|
D-------------------------------------------------------------------------|
A-55555555----------44444444----------55555555----------44444444--------4-|
E----------55555555----------22222222----------55555555----------2222202--|

Iz refrena gre direktno na bridge (sem zraven vkljucil)


trzalica bartrzalica bar

Dodaj komentar


  Iskanje

config