tablatura akordi besedilo   Naiven ples (tab)

trzalica.com besedilo akordi tablature

Legenda ikon:


Pogoji uporabe.    

besedilo z akordi besedilo z akordi
tablature tablatura (tabulatura)
tablature tablatura za bas
tablature videolekcija

GuitarPro GutarPro (GP)
note Note (v PDF formatu)
sibelius Sibelius (SIB), itd.
..

Vse verzije te pesmi:      Naiven ples (taab)       Naiven ples (gp)

trzalica bar

 _______________________________________
|                                       |
| IZVAJALEC: ................ Siddharta |
| PESEM: .................. Naiven ples |
| ALBUM: .......................... Rh- |
|_______________________________________|
|                                       |
|   Transkripcija: AliAs                |
|   Domača stran: Trzalica.com          |
|_______________________________________|
 
================================================================================================
 
LEGENDA:
~ = let ring
\ = slide down
p = pull off
h = hammer on
 
    Dm   C    Gm   A#   Am   F
e|--1----0----3---------0----1--|
B|--3----1----3----3----1----1--|
G|--2----0----3----3----2----2--| -- prijemi akordov
D|--0----2----5----3----2----3--|
A|--0----3----5----1----0----3--|
E|------------3--------------1--|
 
   C*
e|-----0---------|
B|----1----------|
G|---0-----------|
D|--2------------|
A|-3-------------|
E|---------------|
    ~~~~~~~~~~~~~
 
================================================================================================
www.trzalica.com    www.trzalica.com    www.trzalica.com    www.trzalica.com    www.trzalica.com
================================================================================================
 
INTRO:  (00:01 - 00:06)
 
        Dm    C Gm
 
 
VERZ 1:  (00:06 - 00:33)
 
      Dm         Gm       A#        C
        Kadar srce boli britve režejo,
      Dm         Gm        A#        C
        vratove do krvi, trupla padajo.
      Dm           Am        A#       F  C
        Na koncu spere dež vse poražene,
      Dm          Gm          A#           Am     C      C*
        prepih v žilah le, stre ljudi in umaaže peeesti.
 
 
REFREN 1:  (00:34 - 00:56)
 
             Dm          Am      A#           Dm           Gm          A#  C
        Ta naiven zadn ples, ne bo nam dal peres, le grozljive slike pred iiime,
              Dm  Am    A#           Dm         Gm          A#  C
        in nazaaaaaj korakov ni le kraj, koder tema je kraljicaaa saj.
 
 
VERZ 2:  (00:56 - 01:51)
 
pre-verz2: Dm    C Gm
 
      Dm           Gm       A#         C
        Trpljenje pije znoj in solzi oči,
      Dm          Gm       A#           C
        težko je bit heroj iz objestnosti,
      Dm           Am            A#              F  C
        ni treba žlice gret in žret vseh teh tableeet,
      Dm           Gm       A#              Am     C        C*
        v glavi sproži plaz in za zmeraj ustaavi naaam čas.
 
               Gm         C     A#          Dm
        Zdaj umira na dežju, nikogar ni nikjer,
                 Gm            C         Dm
        zdaj je sam in zanj ostaja le nemir,
              Gm        C      Dm         A#
        in krvavo bo meso, spomin ohranjalo,
              Gm           A#        C
        na jesen ko mu je dih ustavilo.
 
 
REFREN 2:  (01:52 - 02:14)
 
             Dm          Am      A#           Dm           Gm          A#  C
        Ta naiven zadn ples, ne bo nam dal peres, le grozljive slike pred iiime,
              Dm  Am    A#           Dm         Gm          A#  C
        in nazaaaaaj korakov ni le kraj, koder tema je kraljicaaa saj.
 
 
SOLO (piščal na kitari):  (02:14 - 02:36)
 
        (Dm   Am   A#   Dm   Gm   A#   C) 2x
 
e|-------13h15p13\12------------------------------------------------------------------|
B|-10-13-------------15-13------------15h17p15----------------------------------------|
G|-------------------------14---14------------17-14-12-14------15-14-12---------------|
D|---------------------------------15-----------------------15----------15-12---10----|
A|------------------------------------------------------------------------------------|
E|------------------------------------------------------------------------------------|
 
e|-------13h15p13\12---------------------------------------|
B|-10-13-------------15-13------------15h17p15-------------|
G|-------------------------14---14------------17-14-12-14--|
D|---------------------------------15----------------------|
A|---------------------------------------------------------|
E|---------------------------------------------------------|
 
e|-------------------------15-13-12h13p12---------|
B|---------------------------------------15-13----|
G|----15-14-12-----15--12-------------------------|
D|-15----------15---------------------------------|
A|------------------------------------------------|
E|------------------------------------------------|
 
 
OUTRO:  (02:36 - 03:45)
 
               Gm         C     A#          Dm
        Zdaj umira na dežju, nikogar ni nikjer,
                 Gm            C         Dm
        zdaj je sam in zanj ostaja le nemir,
              Gm        C      Dm         A#
        in krvavo bo meso, spomin ohranjalo,
              Gm           A#        C
        na jesen ko mu je dih ustavilo.
 
               Gm         C     A#          Dm --\
        Zdaj umira na dežju, nikogar ni nikjer,   \
                 Gm            C         Dm        \
        zdaj je sam in zanj ostaja le nemir,        |-- 2x
              Gm        C      Dm         A#       /
        in krvavo bo meso, spomin ohranjalo,      /
              Gm           C         Dm          /
        na jesen ko mu je dih ustavilo. --------/
 

trzalica bartrzalica bar

Dodaj komentar


Varnostna koda
Osveži

  Iskanje

config