tablatura akordi besedilo   Malishka (tab)

trzalica.com besedilo akordi tablature

Legenda ikon:


Pogoji uporabe.    

besedilo z akordi besedilo z akordi
tablature tablatura (tabulatura)
tablature tablatura za bas
tablature videolekcija

GuitarPro GutarPro (GP)
note Note (v PDF formatu)
sibelius Sibelius (SIB), itd.
..

  ___________________________________________________________
  |  _______________________________________________________  |
  | |                                                       | |
  | | IZVAJALEC: .............. Siddharta                   | |
  | | PESEM: .................. Malishka                    | |
  | | LETO IZIDA: ............. 2011                        | |
  | | DOMAÈA STRAN: ........... www.siddharta.net           | |
  | |_______________________________________________________| |
  | |                                                       | |
  | |   Avtor transkripcije: AliAs                          | |
  | |   Domača stran transkripcije: www.trzalica.com      | |
  | |   Datum nastanka transkripcije: 9.2.2011              | |
  | |_______________________________________________________| |
  |___________________________________________________________|

================================================================================================

PRIJEMI AKORDOV ZA VERZ:

Am - X 0 2 2 1 0
Em - 0 2 2 0 0 0

PRIJEMI AKORDOV ZA REFREN:

Am - 5 7 7 5 5 5
C  - 8 10109 8 8
Em - X 7 9 9 8 7
H  - 7 9 9 8 7 7


================================================================================================
www.trzalica.com    www.trzalica.com    www.trzalica.com    www.trzalica.com    www.trzalica.com
================================================================================================


UVOD & VERZ:

e|---------------------------------|--------------------------------------------------------------------|
H|---------------------------------|--------------------------------------------------------------------|
G|---------------------------------|-------------4-4-5-5-5-5-5-5-4-0-------------4-4-5-5-5-5-5-5-4-2-4--|
D|-2-5-5-2-5-5-6-6-7-7-7-7-7-7-5-4-|-2-5-5-2-5-5---------------------2-5-5-2-5-5------------------------|
A|---------------------------------|--------------------------------------------------------------------|
E|---------------------------------|--------------------------------------------------------------------|

Progresija: Em Am

Najlepša noè
Svila in vino z njo
Kar se lovi
Skrito pred mano bo
Namesto rok
Me greje oddaljen zvok
Lepo diši
Blizu nekje si ti


REFREN:

                Am
In tam vsi pojejo
                Em
In tam vsi pojejo
                H
In tam vsi pojejo
                Em
In tam vsi pojejo


VERZ:

e|------------------------------------------------------------------------|
H|------------------------------------------------------------------------|
G|------------------------------------------------------------------------|
D|------------------------------------------------------------------------|
A|-----------------2-2-3-3-3-3-3-3-2---------------2-2-3-3-3-3-3-3-2-0-2--|
E|-7\--0-333-0-3-3-------------------5-0-3-3-0-3-3------------------------|

Progresija: Em Am

Tam, kjer si ti
Spijo prijatelji
In kjer sem jaz
Se je ustavil èas


REFREN:

                  Am
In tam sam brez idej
                  Em
In tam sam brez idej
                  H
In tam sam brez idej
                  Em
In tam sam brez idej
 C           H
Daj Malishka ogenj prižgi
 Em                  Am
Hladen sem in izgubljen
             Em
O, Malishka vse bolj diši
 H              C
Pazi na svoj objem
 C           H
Daj Malishka ogenj prižgi
 Em                  Am
Hladen sem in izgubljen
             Em
O, Malishka vse bolj diši
 H              Am
Pazi na svoj objem

SOLO & MOST:

e|-------------------------------------------------------------------------------------|
B|-------------------------------------------------------------------------------------|
G|-------------------------------------------11-12-11---999-8---------8----------------|
D|-----------------------9-10-13-14-13-10-13------------------10-9-10---10-9-7---------|
A|-----------101010---10-------------------------------------------------------10-9--7-|
E|--/18\--0---------0------------------------------------------------------------------|

e|------------------------------------------------------------------------------|
B|------------------------------------------------------------------------------|
G|--------------------------------11-12-11---14\11-8/9\8----8/9\8---------------|
D|---------------9-13-14-13-10-13------------------------10-------10-9\7--------|
A|---101010---10----------------------------------------------------------------|
E|-0--------0-------------------------------------------------------------0-----|

Progresija: Em Am

Daj Malishka noro noè
Noro noè mi daj

e|------------------------------------------------------|
B|------------------------------------------------------|
G|-4--4-4--4--5\4-2-2--2--2--4\2-0-0--4--2-2-2-0-----0--|
D|------------------------------------------------4-----|
A|------------------------------------------------------|
E|------------------------------------------------------|


REFREN:

 C           H
Daj Malishka ogenj prižgi
 Em                  Am
Hladen sem in izgubljen
             Em
O, Malishka vse bolj diši
 H              C
Pazi na svoj objem



trzalica bartrzalica bar

Dodaj komentar


Varnostna koda
Osveži

  Iskanje

config