tablatura akordi besedilo   Napalm 3 - singl (tab)

trzalica.com besedilo akordi tablature

Legenda ikon:


Pogoji uporabe.    

besedilo z akordi besedilo z akordi
tablature tablatura (tabulatura)
tablature tablatura za bas
tablature videolekcija

GuitarPro GutarPro (GP)
note Note (v PDF formatu)
sibelius Sibelius (SIB), itd.
..

Vse verzije te pesmi:      Napalm 3 (tab)       Napalm 3 - singl (tab)       Napalm 3 - akustična verzija (tab)

trzalica bar

   ___________________________________________________________
  |  _______________________________________________________  |
  | |                                                       | |
  | | IZVAJALEC: .............. Siddharta                   | |
  | | PESEM: .................. Napalm 3                    | |
  | | ALBUM: .................. Napalm 3 (singel)           | |
  | | LETO IZIDA: ............. 2009                        | |
  | | DOMAČA STRAN: ........... www.siddharta.net           | |
  | |_______________________________________________________| |
  | |                                                       | |
  | |           Avtor transkripcije: AliAs                  | |
  | |    Domača stran transkripcije: Trzalica.com           | |
  | |  Datum nastanka transkripcije: 2.5.2009               | |
  | |_______________________________________________________| |
  |___________________________________________________________|
 
========================================================================================================
 
LEGENDA ZNAKOV:
 × = palm muted
...= tremolo ubiranje
 p = pull off
 ¤ = harmonični ton
 
PRIJEMI AKORDOV:
A     - X 0 2 2 2 0
Am    - X 0 2 2 1 0
A#    - X 1 3 3 3 X
Bm    - X 2 4 4 3 2
C     - X 3 2 0 1 0
Dm    - X 0 0 2 3 1
E     - 0 2 2 1 0 0
F     - 1 3 3 2 1 1
G     - 3 2 0 0 0 3
 
========================================================================================================
www.trzalica.com    www.trzalica.com    www.trzalica.com    www.trzalica.com    www.trzalica.com
========================================================================================================
 
 
INTRO & VERZ 1:
 
   E                             Am
e|-------------------------------------------------------------|
B|-------------------------------------------------------------|
G|-------------------------------------------------------------|
D|-6--6-6-7p6-6-6--6-6-6-7p6-6-6-7--7-7-9p7-7-7--7-7-7-9p7-7-7-|
A|-------------------------------------------------------------|  \
E|-------------------------------------------------------------|   \
   ××××××     ××××××××××     ××××××××××     ××××××××××     ×××      \
                                                                     \__ 4x
   F                             C                                   /
e|-------------------------------------------------------------|    /
B|-------------------------------------------------------------|   /
G|-------------------------------------------------------------|  /
D|-7--7-7-9p7-7-7--7-7-7-9p7-7-7-5--5-5-7p5-5-5--5-5-5-7p5-5-5-|
A|-------------------------------------------------------------|
E|-------------------------------------------------------------|
   ××××××     ××××××××××     ××××××××××     ××××××××××     ×××
 
   E                             Am
e|-------------------------------------------------------------|
B|-------------------------------------------------------------|
G|-------------------------------------------------------------|
D|-6--6-6-7p6-6-6--6-6-6-7p6-6-6-7--7-7-9p7-7-7--7-7-7-9p7-7-7-|
A|-------------------------------------------------------------|
E|-------------------------------------------------------------|
   ××××××     ××××××××××     ××××××××××     ××××××××××     ××× 
 
   F                             A#                              E
e|---------------------------------------------------------------------------|
B|---------------------------------------------------------------------------|
G|---------------------------------------------------------------------------|
D|-7--7-7-9p7-7-7--7-7-7-9p7-7-7-8--8-8-10p8-8-8--8-8-8-10p8-8-8-9--9-9-10p9-|
A|---------------------------------------------------------------------------|
E|---------------------------------------------------------------------------|
   ××××××     ××××××××××     ××××××××××      ××××××××××      ××××××××××
 
E  Am  F  C
E            Am
Stran od ljudi,
 F                     C
mesto je ostalo brez luči, 
 E           Am   F                      C
tam je do nebes, najine stopinje risal ples, 
    E              Am
in jaz, pijem upanje, 
   F                     C
a kaj, ko zoglenelo je srce, 
   E               Am                       F
in ti, nekaj je v tebi, kar sem vedno rad imel, 
          A#        E
a ostalo je samo navidezno .. 
 
 
Prehod v refren:
   E
e|-X-X-X-X-0-------------------12------5--------|
B|-X-X-X-X-0-------------------12------5--------|
G|-X-X-X-X-0-------------------12------5--------|
D|-X-X-X-X-0------------------------------------|
A|-X-X-X-X-0------------------------------------|
E|-X-X-X-X-0------------------------------------|
                               ¤       ¤
 
 
REFREN 1:
 
             F     Am
In tja grem sam, glej, 
           G      Dm
v daljavi nebo gori,  
             F     Am
in tja grem sam, glej, 
           G
nad mano tisoč luči, ki so za vas le okras 
 
 
   F                              Am
e|---------------------------------------------------------|
B|---------------------------------------------------------|
G|---------------------------------------------------------|
D|--------3-------------3-------------7-------------7------|
A|-3--3-3-3--3-3--3-3-3-3--3-3-7--7-7-7--7-7--7-7-7-7--7-7-|
E|-1--1-1-1--1-1--1-1-1-1--1-1-5--5-5-5--5-5--5-5-5-5--5-5-|
   ××××××    ××××××××××    ××××××××××    ××××××××××    ×××
 
   G                           Dm
e|---------------------------------------------------------|
B|---------------------------------------------------------|
G|---------------------------------------------------------|
D|--------5-------------5-------------7-------------7------|
A|-5--5-5-5--5-5--5-5-5-5--5-5-5--5-5-5--5-5--5-5-5-5--5-5-|
E|-3--3-3-3--3-3--3-3-3-3--3-3-5--5-5-5--5-5--5-5-5-5--5-5-|
   ××××××    ××××××××××    ××××××××××    ××××××××××    ×××
 
   F                              Am                       G
e|---------------------------------------------------------------------------------------------|
B|---------------------------------------------------------------------------------------------|
G|---------------------------------------------------------------------------------------------|
D|--------3-------------3-------------7-------------7-------------5-------------5--------------|
A|-3--3-3-3--3-3--3-3-3-3--3-3-7--7-7-7--7-7--7-7-7-7--7-7-5--5-5-5--5-5--5-5-5-5--5-5---------|
E|-1--1-1-1--1-1--1-1-1-1--1-1-5--5-5-5--5-5--5-5-5-5--5-5-3--3-3-3--3-3--3-3-3-3--3-3---------|
   ××××××    ××××××××××    ××××××××××    ××××××××××    ××××××××××    ××××××××××    ×××
 
 
MOST:
 
Kitara 1:
   F                      G                      Am                     Bm
e|---------------------------------------------------------------------------------------------|
B|---------------------------------------------------------------------------------------------|
G|-----------------------------------------------------------------------------4------------4--|
D|--------3------------3---------5------------5---------7------------7--4--4-4-4--4-4--4--4-4--|
A|-3--3-3-3--3-3--3--3-3--5--5-5-5--5-5--5--5-5--7--7-7-7--7-7--7--7-7--2--2-2-2--2-2--2--2-2--|
E|-1--1-1-1--1-1--1--1-1--3--3-3-3--3-3--3--3-3--5--5-5-5--5-5--5--5-5-------------------------|
   ××××××    ×××××××××    ××××××    ×××××××××    ××××××    ×××××××××    ××××××    ×××××××××
 
   F                      G                      Am                     Bm
e|--------------------------------------------------------------------------------------------------------|
B|--------------------------------------------------------------------------------------------------------|
G|--------------------------------------------------------------------------------------------------------|
D|--------3------------3---------5------------5---------7------------7------------------------------------|
A|-3--3-3-3--3-3--3--3-3--5--5-5-5--5-5--5--5-5--7--7-7-7--7-7--7--7-7------------------------------------|
E|-1--1-1-1--1-1--1--1-1--3--3-3-3--3-3--3--3-3--5--5-5-5--5-5--5--5-5--3-5-5-5-5-7-7-7-7-8-8-8-8-10-10-10|
   ××××××    ×××××××××    ××××××    ×××××××××    ××××××    ×××××××××
 
Kitara 2:
   F    G    Am   Bm   F    G    Am   Bm
e|------------------------------------------------------------------------------------|
B|------------------------------------------------------------------------------------|
G|-10...12...14...16...17...19...21...12-14-14-14-14-16-16-16-16-17-17-17-17-19-19-19-|
D|------------------------------------------------------------------------------------|
A|-8....10...12...14...15...17...19...10-12-12-12-12-14-14-14-14-15-15-15-15-17-17-17-|
E|------------------------------------------------------------------------------------|
 
Obe kitari:
e|-------------------------------|
B|-------------------------------|
G|-------------------------------|  -- 4x
D|-------------------------------|
A|-------------------------------|
E|-0--0-0-1p0-0-0--0-0-0-1p0-0-0-|
 
 
VERZ 2:
 
E            Am
Dim starih slik, 
 F                      C
nosi bolečino svetlih dni, 
  E            Am
zrak postaja blag, 
F                        C
a vse bolj naporen je korak, 
    E                 Am   F                  C
in jaz, kot da rabim njo, misli mi obračajo telo, 
           E                 Am                     F
in kje si ti, tam te vidim spet, kako mi tečeš v objem, 
            A#            E
da le ni ograje vmes, pa saj ni res .. 
 
   E                             Am
e|-------------------------------------------------------------|
B|-------------------------------------------------------------|
G|-------------------------------------------------------------|
D|-------------------------------------------------------------| \
A|-------------------------------------------------------------|  \
E|-0--0-0-1p0-0-0--0-0-0-1p0-0-0-5--5-5-7p5-5-5--5-5-5-7p5-5-5-|   \
   ××××××     ××××××××××     ××××××××××     ××××××××××     ×××      \
                                                                     \__ 3x
   F                             C                                   /
e|-------------------------------------------------------------|    /
B|-------------------------------------------------------------|   /
G|-------------------------------------------------------------|  /
D|-------------------------------------------------------------| /
A|-------------------------------3--3-3-5p3-3-3--3-3-3-5p3-3-3-|
E|-1--1-1-3p1-1-1--1-1-1-3p1-1-1-------------------------------|
   ××××××     ××××××××××     ××××××××××     ××××××××××     ×××
 
   E                             Am
e|-------------------------------------------------------------|
B|-------------------------------------------------------------|
G|-------------------------------------------------------------|
D|-------------------------------------------------------------|
A|-------------------------------------------------------------|
E|-0--0-0-1p0-0-0--0-0-0-1p0-0-0-5--5-5-7p5-5-5--5-5-5-7p5-5-5-|
   ××××××     ××××××××××     ××××
 
   F                             A#                            E
e|----------------------------------------------------------------------------|
B|----------------------------------------------------------------------------|
G|----------------------------------------------------------------------------|
D|----------------------------------------------------------------------------|
A|-------------------------------1--1-1-3p1-1-1--1-1-1-3p1-1-1----------------|
E|-1--1-1-3p1-1-1--1-1-1-3p1-1-1-------------------------------0--0-0-1-0-0-0-|
                                                               ××××××××××××××
 
 
REFREN 2:
 
             F     Am
In tja grem sam, glej, 
           G      Dm
v daljavi nebo gori, 
             F     Am
in tja grem sam, glej, 
           G     F#m
nad mano tisoč luči
             F     Am
In tja grem sam, glej, 
          G       F
nad mano mesto lebdi, 
             Dm    Am
in tja grem sam, glej, 
          G        F     Dm  A
tam daleč spet se dani
 
 
   F                              Am
e|---------------------------------------------------------|
B|---------------------------------------------------------|
G|---------------------------------------------------------|
D|--------3-------------3-------------7-------------7------|
A|-3--3-3-3--3-3--3-3-3-3--3-3-7--7-7-7--7-7--7-7-7-7--7-7-|
E|-1--1-1-1--1-1--1-1-1-1--1-1-5--5-5-5--5-5--5-5-5-5--5-5-|
   ××××××    ××××××××××    ××××××××××    ××××××××××    ××××
 
   G                           Dm
e|---------------------------------------------------------|
B|---------------------------------------------------------|
G|---------------------------------------------------------|
D|--------5-------------5-------------7-------------7------|
A|-5--5-5-5--5-5--5-5-5-5--5-5-5--5-5-5--5-5--5-5-5-5--5-5-|
E|-3--3-3-3--3-3--3-3-3-3--3-3-5--5-5-5--5-5--5-5-5-5--5-5-|
   ××××××    ××××××××××    ××××××××××    ××××××××××    ×××
 
   F                              Am
e|---------------------------------------------------------|
B|---------------------------------------------------------|
G|---------------------------------------------------------|
D|--------3-------------3-------------7-------------7------|
A|-3--3-3-3--3-3--3-3-3-3--3-3-7--7-7-7--7-7--7-7-7-7--7-7-|
E|-1--1-1-1--1-1--1-1-1-1--1-1-5--5-5-5--5-5--5-5-5-5--5-5-|
   ××××××    ××××××××××    ××××××××××    ××××××××××    ×××
 
   G                           F#m
e|-----------------------------------------------------------|
B|-----------------------------------------------------------|
G|-----------------------------------------------------------|
D|--------5-------------5------------------------------------|
A|-5--5-5-5--5-5--5-5-5-5--5-5-------------------------------|
E|-3--3-3-3--3-3--3-3-3-3--3-3-2--2-2-5p2-2-2--2-2-2-5p2-2-2-|
   ××××××    ××××××××××    ×××
 
   F                              Am
e|---------------------------------------------------------|
B|---------------------------------------------------------|
G|---------------------------------------------------------|
D|-3--3-3-3--3-3--3-3-3-3--3-3-7--7-7-7--7-7--7-7-7-7--7-7-|
A|-3--3-3-3--3-3--3-3-3-3--3-3-7--7-7-7--7-7--7-7-7-7--7-7-|
E|-1--1-1-1--1-1--1-1-1-1--1-1-5--5-5-5--5-5--5-5-5-5--5-5-|
 
   G                           F
e|---------------------------------------------------------|
B|---------------------------------------------------------|
G|---------------------------------------------------------|
D|-5--5-5-5--5-5--5-5-5-5--5-5-3--3-3-3--3-3--3-3-3-3--3-3-|
A|-5--5-5-5--5-5--5-5-5-5--5-5-3--3-3-3--3-3--3-3-3-3--3-3-|
E|-3--3-3-3--3-3--3-3-3-3--3-3-1--1-1-1--1-1--1-1-1-1--1-1-|
 
 
   Dm                             Am                       G
e|-------------------------------------------------------------------------------------|
B|-------------------------------------------------------------------------------------|
G|-------------------------------------------------------------------------------------|
D|-7--7-7-7--7-7--7-7-7-7--7-7-7--7-7-7--7-7--7-7-7-7--7-7-5--5-5-5--5-5--5-5-5-5--5-5-|
A|-5--5-5-5--5-5--5-5-5-5--5-5-7--7-7-7--7-7--7-7-7-7--7-7-5--5-5-5--5-5--5-5-5-5--5-5-|
E|-5--5-5-5--5-5--5-5-5-5--5-5-5--5-5-5--5-5--5-5-5-5--5-5-3--3-3-3--3-3--3-3-3-3--3-3-|
 
Zaključek:
Kitara 1:
   F
   Dm
   A
   A
e|-------------------------------|
B|-------------------------------|
G|-------------------------------|  -- 4x
D|-7--7-7-9p7-7-7--7-7-7-9p7-7-7-|
A|-------------------------------|
E|-------------------------------|
   ××××××     ××××××××××     ×××
 
Kitara 2:
   F
   Dm
   A                                             A
e|---------------------------------------------|--------------------------------------------------|
B|---------------------------------------------|--------------------------------------------------|
G|-10--10-10-12p10-10-10--10-10-10-12p10-10-10-|-10--10-10-12p10-10-10--10-10-10-12p10-10--9------|
D|---------------------------------------------|--------------------------------------------------|
A|---------------------------------------------|--------------------------------------------------|
E|---------------------------------------------|--------------------------------------------------|
   ×××××××××       ×××××××××××××××       ×××××   ×××××××××       ×××××××××××××××
 


trzalica bartrzalica bar

Dodaj komentar


Varnostna koda
Osveži

  Iskanje

config