tablatura akordi besedilo   Napalm 3 - akustična verzija (tab)

trzalica.com besedilo akordi tablature

Legenda ikon:


Pogoji uporabe.    

besedilo z akordi besedilo z akordi
tablature tablatura (tabulatura)
tablature tablatura za bas
tablature videolekcija

GuitarPro GutarPro (GP)
note Note (v PDF formatu)
sibelius Sibelius (SIB), itd.
..

Vse verzije te pesmi:      Napalm 3 (tab)       Napalm 3 - singl (tab)       Napalm 3 - akustična verzija (tab)

trzalica bar

   ___________________________________________________________
  |  _______________________________________________________  |
  | |                                                       | |
  | | IZVAJALEC: .............. Siddharta                   | |
  | | PESEM: .................. Napalm 3 (akustična verzija)| |
  | | ALBUM: .................. Napalm 3 (singel)           | |
  | | LETO IZIDA: ............. 2009                        | |
  | | DOMAČA STRAN: ........... www.siddharta.net           | |
  | |_______________________________________________________| |
  | |                                                       | |
  | |           Avtor transkripcije: AliAs                  | |
  | |    Domača stran transkripcije: Trzalica.com           | |
  | |  Datum nastanka transkripcije: 21.4.2009              | |
  | |_______________________________________________________| |
  |___________________________________________________________|
 
================================================================================================
 
LEGENDA ZNAKOV:
p = pull off
h = hammer on
/ = slide up
\ = slide down
 
PRIJEMI AKORDOV:
Am    - X 0 2 2 1 0
A#    - X 1 3 3 3 X
Bm    - X 2 4 4 3 2
C     - X 3 2 0 1 0
Dm    - X 0 0 2 3 1
E     - 0 2 2 1 0 0
Esus4 - 0 2 2 2 0 0
F     - 1 3 3 2 1 1
G     - 3 2 0 0 0 3
 
 
================================================================================================
www.trzalica.com    www.trzalica.com    www.trzalica.com    www.trzalica.com    www.trzalica.com
================================================================================================
 
INTRO:
 
   E
e|-------------------------------|
B|-------------------------------|
G|-------------------------------|
D|-------------------------------|
A|--------8-7------------8-7-----|
E|-0--0-0-----0-0--0-0-0-----0-0-|
 
 
VERZ:
 
E
Stran od ljudi,
 F                     E
mesto je ostalo brez luči, 
                  F                      E
tam je do nebes, najine stopinje risal ples, 
                   Am
in jaz, pijem upanje, 
   F                     C
a kaj, ko zoglenelo je srce, 
   E               Am                       F
in ti, nekaj je v tebi, kar sem vedno rad imel, 
          A#        Esus4  E  (Esus4  E)
a ostalo je samo navidezno .. 
 
 
REFREN:
 
             F     Am
In tja grem sam, glej, 
           G      Dm
v daljavi nebo gori,  
             F     Am
in tja grem sam, glej, 
           G                            F... solo
nad mano tisoč luči, ki so za vas le okras .. 
 
 
SOLO:
 
        F             G             Am                   Bm
e|----------------------------------------------------------------------------------|
B|----------------------------------------------------------------------------------|
G|---------------------------------------------0-2---0-2-4--4-4-4/5-5-5-5/7-7-7-7---|
D|--------------3-------------5--------0-2-5-2--------------------------------------|
A|--------3-3/5---3-----5-3/5---5---0-----------------------------------------------|
E|-13\--1-------------3-------------------------------------------------------------|
 
   F                    G                       Am                           Bm
e|------------------------------------------------------------------------------------------------|
B|------------------------------------------------------------------------------------------------|
G|--------------10--------------------12-9--------------------------------------------------------|
D|-----10-10/12----10--------12-10/12------12------14\12\10-12\10\9-10\9\7-----12\10\9-10\9-7h9---|
A|-5/8------------------8/10--------------------0-------------------------------------------------|
E|------------------------------------------------------------------------------------------------|
 
    F          G            Am                 Bm
e|---------------------------------------------------------------------------|
B|---------------------------------------------10p8--10p8--10p8--10p8--10p8--|
G|-----------------------------------9--12-9-------9-----9-----9-----9-----9-|
D|-/7---8--10--9--10--/12------10-12-----------------------------------------|
A|--------------------------0------------------------------------------------|
E|---------------------------------------------------------------------------|
 
   F                         G
e|-10--10--------------------10--10--------------------|
B|---------13--13--13-13-13----------12--12--12-12-12--|
G|-----------------------------------------------------|
D|-----------------------------------------------------|
A|-----------------------------------------------------|
E|-----------------------------------------------------|
 
   Am                        Bm                                  E
e|-10--10--------------------10-----10--10-10-----10--10-10--10--12--------|
B|---------13--13--13-13-13------12------------12----------------12--------|
G|-------------------------------------------------------------------------|
D|-------------------------------------------------------------------------|
A|-------------------------------------------------------------------------|
E|-------------------------------------------------------------------------|
 
 
VERZ:
 
E            Am
Dim starih slik, 
 F                      C
nosi bolečino svetlih dni, 
  E            Am
zrak postaja blag, 
F                        C
a vse bolj naporen je korak, 
    E                 Am   F                  C
in jaz, kot da rabim njo, misli mi obračajo telo, 
           E                 Am                     F
in kje si ti, tam te vidim spet, kako mi tečeš v objem, 
          A#         E
daj mi ograjo vmes, saj ni res .. 
 
 
REFREN:
 
             F     Am
In tja grem sam, glej, 
           G      Dm
v daljavi nebo gori, 
             F     Am
in tja grem sam, glej, 
           G     F#m
nad mano tisoč luči
             F     Am
In tja grem sam, glej, 
          G       F
nad mano mesto lebdi, 
             Dm    Am
in tja grem sam, glej, 
           G        F     Dm  Am
tam daleč spet se dani
 


trzalica bartrzalica bar

Dodaj komentar


Varnostna koda
Osveži

  Iskanje

config