tablatura akordi besedilo   Napoj (tab)

trzalica.com besedilo akordi tablature

Legenda ikon:


Pogoji uporabe.    

besedilo z akordi besedilo z akordi
tablature tablatura (tabulatura)
tablature tablatura za bas
tablature videolekcija

GuitarPro GutarPro (GP)
note Note (v PDF formatu)
sibelius Sibelius (SIB), itd.
..

 _______________________________________
|                                       |
| IZVAJALEC: ................ Siddharta |
| PESEM: ........................ Napoj |
| ALBUM: .......................... Rh- |
|_______________________________________|
|                                       |
|   Transkripcija: AliAs                |
|   Domača stran: Trzalica.com          |
|_______________________________________|
 
================================================================================================
 
LEGENDA:
M = MUTE
× = palm muted
b = bend up za 1/2 tona
 
   C#m   E   F#   G#m   D#
e|-4-----0---2----4----------|
B|-5-----0---2----4-----8----|
G|-6-----1---3----4-----8----| -> prijemi akordov (VERZ 1, VERZ 2)
D|-6-----2---4----6-----8----|
A|-4-----2---4----6-----6----|
E|-------0---2----4----------|
 
================================================================================================
www.trzalica.com    www.trzalica.com    www.trzalica.com    www.trzalica.com    www.trzalica.com
================================================================================================
 
INTRO:  (00:07 - 00:15)
 
                2x
   C#m       E       F#      G#m
e|-------------------------------|-----|
B|-------------------------------|-----|
G|-------------------------------|-----|
D|---6---6-6-2---2-2-4---4-4-6---|-----|
A|-444---4-4-2---2-2-4---4-4-6---|-44--|
E|-444---4-4-0---0-0-2---2-2-4---|-44--|
   ××                              ××
 
 
VERZ 1:  (00:15 - 00:48)
 
               C#m     E     F#       G#m
        A si opazu ta čas kako nam beži,
               C#m      E     F#       G#m
        ko nad ure na glas jezimo se vsi
              C#m E  F# G#m       C#m E   F# G#m
        Se tega  za-ve-dam, pa le ne-mo gle-dam.
             C#m   E     F#      G#m
        Steklene oči, nemirno telo,
             C#m       E      F#        G#m
        a noben ne skrbi, da bolje bi blo.
                 C#m E   F# G#m       C#m  E   F#  G#m
        Zdej je to  naš mo-ment, ko zamr-zne pro-blem
         E       C#m         D#
        Delajmo se kot da noben nič ne ve.
 
 
REFREN 1:  (00:49 - 01:05)
 
              C#m       E          F#         G#m --\
        Le namen biti vrag nej bo danes naš znak,    \__ 2x
               C#m       E          F#        G#m    /
        naj vedo kdo je to, ko se dvigal bo prah ---/
 
                 4x
    C#m       E       F#      G#m
e|-------------------------------|-----|
B|-------------------------------|-----|
G|-------------------------------|-----|
D|---6---6-6-2---2-2-4---4-4-6---|-----|
A|-444---4-4-2---2-2-4---4-4-6---|-44--|
E|-444---4-4-0---0-0-2---2-2-4---|-44--|
   ××                              ××
 
 
VERZ 2:  (01:08 - 01:42)
 
                 C#m      E
        In na stran bomo dal vse kar nas teži
                C#m       E
        če nas rabi kdo, žal nej mal potrpi
        Sej tako ne gre več, sami sebi smo odveč
                 C#m    E        F#      G#m
        Kaj nam bo koledar, se nam ne mudi
              C#m      E        F#     G#m
        in pozabi na dnar, le glava boli
                 C#m E   F# G#m       C#m  E   F#  G#m
        Zdej je to  naš mo-ment, ko zamr-zne pro-blem
         E       C#m         D#
        Delajmo se kot da noben nič ne ve.
 
 
REFREN 2:  (01:42 - 01:56)
 
              C#m       E          F#         G#m --\
        Le namen biti vrag nej bo danes naš znak,    \__ 2x
               C#m       E          F#        G#m    /
        naj vedo kdo je to, ko se dvigal bo prah ---/
 
   C#m       E       F#      G#m
e|-------------------------------|
B|-------------------------------|
G|-------------------------------| -- 4x
D|---6---6-6-2---2-2-4---4-4-6---|
A|-444---4-4-2---2-2-4---4-4-6---|
E|-444---4-4-0---0-0-2---2-2-4---|
   ××
 
 
BRIDGE:  (01:57 - 02:44)
 
      E                   F#  E               F#
        Ni potrebno biti lep,  ne do vratu zapet
      E                   F#                G#m
        vse kar rabiš je divje veselje in ples
      E                   F#
        Tu nobeden ne grozi (miru je na tone)
      E                       F#
        vseeno nam je kaj sledi (pustimo zapore)
      E                   F#                D#
        imamo vse kar potrebno je, zato bo divje divje
 
        (E  F#)3x  D#
 
                           E               F#              E               F#
e|--------------------------------------------------------------------------------------|
B|--------------------------------------------------------------------------------------|
G|--------------------------------------------------------------------------------------|
D|-------------------------2---2-2-2---2-2-4---------------2---2-2-2---2-2-/7b-\--------|
A|-------6--4--------------2---2-2-2---2-2-4------4--1-----2---2-2-2---2-2------4--1----|
E|-6--7--------7--6--4--2--0---0-0-0---0-0-2------------2--0---0-0-0---0-0------------2-|
                                              M
 
   E               F#              G#m
e|-------------------------------------------------------------|
B|-------------------------------------------------------------|
G|-------------------------------------------------------------|
D|-2---2-2-2---2-2-4---4-4-4---4-4-6------6------6------6-6-6--|
A|-2---2-2-2---2-2-4---4-4-4---4-4-6--66666--66666--66666-6-6--|
E|-0---0-0-0---0-0-2---2-2-2---2-2-4--44444--44444--44444-4-4--|
                                      ××××   ××××   ××××
 
   E           F#              E           F#
e|---------------------------------------------------------|
B|---------------------------------------------------------|
G|---------------------------------------------------------|
D|-------------4---4-4-4---4-4-------------4---4-4-4---4-4-|
A|-2-2-2-2-2-2-4---4-4-4---4-4-2-2-2-2222224---4-4-4---4-4-|
E|-0-0-0-0-0-0-2---2-2-2---2-2-0-0-0-0000002---2-2-2---2-2-|
   ×××××××××××                 ××××××××××××
 
   E           F#              D#
e|-----------------------------------------------------------|
B|-----------------------------------------------------------|
G|-----------------------------6/888886/888886/888888888888\-|
D|-------------4---4-4-4---4-4-------------------------------|
A|-2-2-2-2-2-2-4---4-4-4---4-4-4/666664/666664/666666666666\-|
E|-0-0-0-0-0-0-2---2-2-2---2-2-------------------------------|
   ××××××××××× 
 
   E           F#              E           F#
e|---------------------------------------------------------|
B|---------------------------------------------------------|
G|---------------------------------------------------------|
D|-------------4---4-4-4---4-4-------------4---4-4-4---4-4-|
A|-2-2-2-2-2-2-4---4-4-4---4-4-2222222222224---4-4-4---4-4-|
E|-0-0-0-0-0-0-2---2-2-2---2-2-0000000000002---2-2-2---2-2-|
   ×××××××××××                 ××××××××××××
 
   E           F#              D#
e|-----------------------------------------------------|
B|-----------------------------------------------------|
G|-----------------------------6/888886/888886/888888--|
D|-------------4---4-4-4---4-4-------------------------|
A|-2-2-2-2-2-2-4---4-4-4---4-4-4/666664/666664/666666--|
E|-0-0-0-0-0-0-2---2-2-2---2-2-------------------------|
   ×××××××××××                                        M
 
 
REFREN 3:  (02:45 - 03:15)
 
              C#m       E          F#         G#m --\
        Le namen biti vrag nej bo danes naš znak,    \__ 2x
               C#m       E          F#        G#m    /
        naj vedo kdo je to, ko se dvigal bo prah ---/
              C#m       E    F#   G#m
        Le namen biti vrag
               C#m       E    F#   G#m
        naj vedo kdo je to
              C#m       E    F#   G#m
        Le namen biti vrag
               C#m       E          F#        G#m
        naj vedo kdo je to, ko se dvigal bo prah
 
   C#m       E       F#      G#m
e|-------------------------------|
B|-------------------------------|
G|-------------------------------| -- 8x
D|---6---6-6-2---2-2-4---4-4-6---|
A|-444---4-4-2---2-2-4---4-4-6---|
E|-444---4-4-0---0-0-2---2-2-4---|
   ××
 
 
OUTRO:  (03:15 - 03:46)
 
                3x
   E           F#                D#
e|-----------------------------|-------------------------------|
B|-----------------------------|-------------------------------|
G|-----------------------------|-6/888886/888886/888888888888\-|
D|-------------4---4-4-4---4-4-|-------------------------------|
A|-2-2-2-2-2-2-4---4-4-4---4-4-|-4/666664/666664/666666666666\-|
E|-0-0-0-0-0-0-2---2-2-2---2-2-|-------------------------------|
   ×××××××××××
 
   E           F#              E           F#
e|---------------------------------------------------------|
B|---------------------------------------------------------|
G|---------------------------------------------------------|
D|-------------4---4-4-4---4-4-------------4---4-4-4---4-4-|
A|-2-2-2-2-2-2-4---4-4-4---4-4-2-22222-22224---4-4-4---4-4-|
E|-0-0-0-0-0-0-2---2-2-2---2-2-0-00000-00002---2-2-2---2-2-|
   ×××××××××××                 ××××××××××××
 
   E           F#              D#
e|-----------------------------------------------------------|
B|-----------------------------------------------------------|
G|-----------------------------6/888886/888886/888888888888\-|
D|-------------4---4-4-4---4-4-------------------------------|
A|-2-22222-22224---4-4-4---4-4-4/666664/666664/666666666666\-|
E|-0-00000-00002---2-2-2---2-2-------------------------------|
   ××××××××××××
 

trzalica posnetek bar

trzalica bar
 

Dodaj komentar


Varnostna koda
Osveži

  Iskanje

config