tablatura akordi besedilo   Narava (tab)

trzalica.com besedilo akordi tablature

Legenda ikon:


Pogoji uporabe.    

besedilo z akordi besedilo z akordi
tablature tablatura (tabulatura)
tablature tablatura za bas
tablature videolekcija

GuitarPro GutarPro (GP)
note Note (v PDF formatu)
sibelius Sibelius (SIB), itd.
..

Oglej si še:

besedilo z akordi  Narava

trzalica bar

   ___________________________________________________________
  |  _______________________________________________________  |
  | |                                                       | |
  | | IZVAJALEC: .............. Siddharta                   | |
  | | PESEM: .................. Narava                      | |
  | | ALBUM: .................. Saga                        | |
  | | LETO IZIDA: ............. 2009                        | |
  | | DOMAČA STRAN: ........... www.siddharta.net           | |
  | |_______________________________________________________| |
  | |                                                       | |
  | |           Avtor transkripcije: AliAs                  | |
  | |    Domača stran transkripcije: Trzalica.com           | |
  | |  Datum nastanka transkripcije: 8.2.2011               | |
  | |_______________________________________________________| |
  |___________________________________________________________|
 
================================================================================================
 
!!! Uglasitev kitare: DGCFAD !!!
 
PRIJEMI AKORDOV ZA REFREN:
Am    - X 0 2 2 1 X
A5    - 5 7 7 X X X
A#5   - 6 8 8 X X X
C     - X 3 5 5 5 X
D     - X X 0 2 3 1
F     - 1 3 3 2 X X
G     - 3 5 5 4 X X
Gsus4 - 3 5 5 5 X X
 
glasba: Tomi M.
besedilo: Tomi M.
aranžma: Siddharta
 
================================================================================================
www.trzalica.com    www.trzalica.com    www.trzalica.com    www.trzalica.com    www.trzalica.com
================================================================================================
 
 
UVOD:
   Am                                                      G              Am
d|-5---5---5--5--5-5-5-5-5-5---5---5--5--5-5-5-5---0---0---3/5\3----3-3--------------------------------|
A|-5---5---5--5--5-5-6-6-5-5---5---5--5--5-5-6-6-0-1---1---0-----0--0-0--------------1--3--3-3-1-1-0-0-|
F|-5---5---5--5--5-5-5-5-5-5---5---5--5--5-5-5-5-0-2---2---0-----0--0-0-0-2-0-2--2---2--2--2-2-2-2-2-0-|
C|-7---7---7--7--7-7-7-7-7-7---7---7--7--7-7-7-7-0-2---2---0-----0--0-0-0-2-0-2--2---2--2--2-2-2-2-2-0-|
G|-7---7---7--7--7-7-7-7-7-7---7---7--7--7-7-7-7---0---0-------------------------0---0--0--0-0-0-0-0-0-|
D|-5---5---5--5--5-5-5-5-5-5---5---5--5--5-5-5-5-------------------------------------------------------|
 
   Am      G              Am                   F        G            F        G
d|-0---0---3/5\3----3-3-----------0---0--0-0-0-------------3-3--3-3--------------3-3--3-3--|
A|-1---1---0-----0--0-0-0-1---1---0---0--0-0-0-------------3-3--3-3--------------3-3--3-3--|
F|-2---2---0-----0--0-0-0-2---2---2---2--2-2-2-2---2---2/4-4-4--4-4--2---2---2/4-4-4--4-4--|
C|-2---2---0-----0--0-0-0-2---2---2---2--------3---3---3/5-5-5--5-5--3---3---3/5-5-5--5-5--|
G|-0---0------------------0---0----------------3---3---3/5-----------3---3---3/5-----------|
D|---------------------------------------------1---1---1/3-----------1---1---1/3-----------|
 
   F        G          Am
d|-----------------3--------5--5-5-5-5-5--5-----|
A|-----------------3--------6--6-6-6-5-5--5-----|
F|-2---2---2/4-----4--------5--5-5-5-5-5--5-----|
C|-3---3---3/5--5--5--5/7---7--7-7-7-7-7--7---5-|
G|-3---3---3/5--5--5--5/7---7--7-7-7-7-7--7---5-|
D|-1---1---1/3--3--3--3/5---5--5-5-5-5-5--5---3-|
 
 
        Am              G
        Sedim na bregu reke
                    Am
        Sam z mislimi
                      G
        Na poti po vesolju
                   Am
        Ni takih slik
      F             G
        Ti jih narediš za nas
      F             G
        V dušo položiš
      F
        Ko le lahko
          G            Am
        Vsi bi to videli
 
 
VERZ:
 
      Am                G           Am
        Naj te besede vsak v sebi drži
                        G
        Nevarno blizu vrat
                      Am
        Sovražnik stoji
      F                 G
        In morda spet pride dan
      F               G
        Ko bo tekla kri
           F          G
        A vedi da takrat
                   Am
        Ob tebi smo mi
 
 
REFREN:
 
      F        Dm      Am
        V tebi ogenj gori
                   C              F
        Zato da v nas življenje nori
        Dm             A5  (A#5 A5...)
        Vse kar je si ti
      F           Dm          C
        V tebi vesolje polno srca
                   Am          F
        Najlepše imetje tega sveta
        Dm             Gsus4  G
        Vse kar je si ti
 
 
VERZ:
 
d|----------------------------------------------------17p15------------------------|
A|----------------------------------------------------------17-15------------------|
F|----------------------------------------------------------------17-14--17--14----|
C|---------------------------------/14--13---10-\----------------------------------|
G|------------10-12-------10-12-10-------------------------------------------------|
D|------10-12-------10-12----------------------------------------------------------|
        ××××××××××××××××××××××××××
 
d|---------------------5/9----------------------------8---8--------------------------|
A|-5-5-5-5-5-5-5-5-5-5--------5-5-5-5-8-8-8-8-5-6---6---6---6----6-------------------|
F|-7-7-7-7-7-7-7-7-7-7--------7-7-7-7-7-7-7-7-7-7----------------7b---7-5-7------5---|
C|-7-7-7-7-7-7-7-7-7-7--------7-7-7-7------------------------------------------------|
G|-----------------------------------------------------------------------------------|
D|-----------------------------------------------------------------------------------|
                                                                      ×××פ
 
d|----8------8-----8-----------8-----------8------8------8--------|
A|------10-----10----10---10-----10---10-----10-----10------------|
F|---------9------9-----9-----------9-----------9------9----------|
C|----------------------------------------------------------------|
G|----------------------------------------------------------------|
D|----------------------------------------------------------------|
 
 
           Am          G
        Ob mirnem jezeru
                   Am
        V travi ležim
                        G
        In grad tam v temi
                   Am
        Nad mano bedi
      F             G
        Tam vrhovi do neba
      F             G
        In okus morja
        F              G
        Vedno bližje njej
                    Am
        In višje kot prej
 
 
d|-----------------------------------------------------------------|
A|-----------------------------------------------------------------|
F|-1010109-9-9-10101014141412121212151515151515151515141414140-0-0-|
C|-0-0-0-0-0-0-0-0-0-0-0-0-0-0-0-0-0-0-0-0-0-0-0-0-0-0-0-0-0-0-0-0-|
G|-----------------------------------------------------------------|  \
D|-----------------------------------------------------------------|   \
                                                                        |- 2x
d|-----------------------------------------------------------------|   /
A|-----------------------------------------------------------------|  /
F|---------------------------------17171717171717171717171717171717|
C|-2020202020202020201919191917171719191919191919191919191919191919|
G|-0-0-0-0-0-0-0-0-0-0-0-0-0-0-0-0-0-0-0-0-0-0-0-0-0-0-0-0-0-0-0-0-|
D|-----------------------------------------------------------------|
 
 
REFREN (2x):
 
      F        Dm      Am
        V tebi ogenj gori
                   C              F
        Zato da v nas življenje nori
        Dm             A5  (A#5 A5...)
        Vse kar je si ti
      F           Dm          C
        V tebi vesolje polno srca
                   Am          F
        Najlepše imetje tega sveta
        Dm             Gsus4  G
        Vse kar je si ti
 


trzalica bar

trzalica bar

Dodaj komentar


Varnostna koda
Osveži

  Iskanje

config