tablatura akordi besedilo   Neki sladkega - live (tab)

trzalica.com besedilo akordi tablature

Legenda ikon:


Pogoji uporabe.    

besedilo z akordi besedilo z akordi
tablature tablatura (tabulatura)
tablature tablatura za bas
tablature videolekcija

GuitarPro GutarPro (GP)
note Note (v PDF formatu)
sibelius Sibelius (SIB), itd.
..

Oglej si še:

tablatura akordi besedilo  Neki sladkega - BFM(tab)
videolekcija Neki sladkega

trzalica bar

 _______________________________________
|                                       |
| IZVAJALEC: ................ Siddharta |
| PESEM: ......... Neki sladkega (live) |
| ALBUM: ....... BFM 15 let (živi album)|
|_______________________________________|
|                                       |
|   Transkripcija: AliAs                |
|   Domača stran: Trzalica.com          |
|_______________________________________|
 
 
LEGENDA:
M = MUTE
~ = let ring
/ = slide up
\ = slide down
v = vibrated
¤ = pitch harmonik
 
kitara 1. = Primož
kitara 2. = Tomi
 
 
UGLASITEV: D G C F A D (en ton nižje)
 
TRANSPONACIJA AKORDOV:
 
D G C F A D uglasitev ------------ standardna uglasitev 
 (navidezni prijemi)                  (pravi akordi)
 
                Em  ---------------->   Dm
                A   ---------------->   G
                Bm  ---------------->   Am
                F#m ---------------->   Em
                G   ---------------->   F
 
Tabulatura in (navidezni) akordi v besedilu, so napisani za en ton nižjo uglasitev - D G C F A D.
Za igranje po tabulaturi morate kitaro torej uglasiti za en ton nižje, če pa boste igrali samo
akorde na standardni uglasitvi, pa glejte zgornjo tabelo, ki prikazuje katere akorde je treba
prijeti namesto navideznih.
 
========================================================================================================
www.trzalica.com    www.trzalica.com    www.trzalica.com    www.trzalica.com    www.trzalica.com
========================================================================================================
 
INTRO:
 
Bas intro:
F|-------------------------------|
C|-------9-9-9-9-8-8-8-9-9-9-9-9-|  -- 8x
G|-------------------------------|
D|-7--7--------------------------|
 
obe kitari:
D|-----------------------------------------------------------------|
A|-----------------------------------------------------------------| 
F|-----------------------------------------------------------------|          \
C|---------9-9-9-9-8-8-8-9-9-9-9-9---------------------------------|           \
G|---------------------------------0-0-0-0-7-7-7-7-5-5-5-4-4-4-4-4-|            \
D|(7-7-7-7)--------------------------------------------------------|             \
                                                                                  \__ 2x
D|---------------------------------------------------------------------------|    /
A|---------------------------------------------------------------------------|   /
F|---------------------------------------------------------------------------|  /
C|---------------------------------------------------------------------------| /
G|---------7-7-7-7-9-9-9-10-10-10-10-----------------------------------------|
D|-0-0-0-0---------------------------7-7-7-7-10-10-10-10-10-10-10-10-7-7-7-7-|
 
kitara 1.
D|---------------------------------------------------------X-|
A|---------------------------------------------------------X-|
F|---------------------------------------------------------X-|
C|---------------------------------------------------------X-|
G|---------------------------------------------------------X-|
D|-7v------------------------------------------------------X-|
    ~~~~~~~~~~~~~~~~~~~~~~~~~~~~~~~~~~~~~~~~~~~~~~~~~~~~~~~ M
 
kitara 2.
D|-X-X-X-X-X---X-X-X-X-X-X-X---X-X-X-X-X-X-X---X-X-X-X-X-X-X-|
A|-X-X-X-X-X---X-X-X-X-X-X-X---X-X-X-X-X-X-X---X-X-X-X-X-X-X-|
F|-X-X-X-X-X---X-X-X-X-X-X-X---X-X-X-X-X-X-X---X-X-X-X-X-X-X-|
C|-X-X-X-X-X---X-X-X-X-X-X-X---X-X-X-X-X-X-X---X-X-X-X-X-X-X-|
G|-X-X-X-X-X---X-X-X-X-X-X-X---X-X-X-X-X-X-X---X-X-X-X-X-X-X-|
D|-X-X-X-X-X---X-X-X-X-X-X-X---X-X-X-X-X-X-X---X-X-X-X-X-X-X-|
                                                            M
 
 
VERZ 1:
 
      Bm              A
        In zapiha puščavski vihar,
      Em              Bm
        dvigne pesek meter od tal.
                        A
        Iz tal vstane mlado telo,
      Em                      Bm
        do oči zakrito z lepljivo snovjo
                       F#m
        Ne razume več mojih besed,
      Em                   Bm
        ne dosega njenih zvezd
 
kitara 1.
D|--------------------------------------------|
A|--------------------------------------------|
F|-----------------------------------------4--|
C|-/9-------11--12--4v------4--5---2-------4--|
G|-----------------------------------------2--|
D|--------------------------------------------|
                                             M
 
 
REFREN 1:
 
                                Em
        V očeh pa najdem neki sladkega,
                           Bm
        sam hudič ne ve zakaj.
                                A
        V očeh pa najdem neki sladkega,
                            G      F#m  G
        ki me vleče spet nazaj.
 
obe kitari:
   Em                  ...sam hudič...
D|------------------------------------------------|
A|------------------------------------------------|
F|------------------------------------------------|
C|-2---2---2--2-2-2---2---2-2-4-4-5-5-4-4---------|
G|-2---2---2--2-2-2---2---2-2-4-4-5-5-4-4-----5-5-|
D|-0---0---0--0-0-0---0---0-0-2-2-3-3-2-2-0-0-----|
 
   Bm                                     A
D|---------------------------------------------------------------------------------|
A|---------------------------------------------------------------------------------|
F|-4---4---4--4-4------2-4---4---4--4-4-4------------------------------------------|
C|-4---4---4--4-4--2-4---4---4---4--4-4-4-7---7---7--7-7-7---7---7---7--7-7-7--7-7-|
G|-2---2---2--2-2--------2---2---2--2-2-2-7---7---7--7-7-7---7---7---7--7-7-7--7-7-|
D|----------------(0-2-5)-----------------5---5---5--5-5-5---5---5---5--5-5-5--5-5-|
                                                                                  M
 
 
kitara 1.
   G                                        F#m  G
D|-----------------------------------------------------------|
A|-----------------------------------------------------------|
F|-12-12-12-12---12-12-12-12---12-12---12---11---12----------|
C|-----------------------------------------------------------|
G|-10-10-10-10---10-10-10-10---10-10---10---9----10----------|
D|-----------------------------------------------------------|
              M             M       M    M    M    ~~~~~~~~~M
 
kitara 2.
   G                                        F#m  G
D|-----------------------------------------------------------|
A|-----------------------------------------------------------|
F|-12-12-12-12---12-12-12-12---12-12---12---11---12----------|
C|-12-12-12-12---12-12-12-12---12-12---12---11---12----------|
G|-10-10-10-10---10-10-10-10---10-10---10---9----10----------|
D|-----------------------------------------------------------|
              M             M       M    M    M    ~~~~~~~~~M
 
 
PRE-VERZ 2:
 
obe kitari:
D|-----------------------------------------------------------------|
A|-----------------------------------------------------------------| 
F|-----------------------------------------------------------------|
C|---------9-9-9-9-8-8-8-9-9-9-9-9---------------------------------|
G|---------------------------------0-0-0-0-7-7-7-7-5-5-5-4-4-4-4-4-|
D|-----------------------------------------------------------------|
 
D|---------------------------------------------------------------------------|
A|---------------------------------------------------------------------------|
F|---------------------------------------------------------------------------|
C|---------------------------------------------------------------------------|
G|---------7-7-7-7-9-9-9-10-10-10-10-----------------------------------------|
D|-0-0-0-0---------------------------7-7-7-7-10-10-10-10-10-10-10-10-7-7-7-7-|
 
VERZ 1:
 
kitara 1.
D|----------------------------|
A|----------------------------|
F|----------------------------|
C|-9-----------v--------------|
G|----------------------------|
D|----------------------------|
    ~~~~~~~~~~~~~~~~~~~~~~~~~~
 
      Bm                    A
        Podnev je vroče, ponoč mi je mraz.
      Em                   Bm
        Na obzorju se svetlika obraz.
      Bm              A
        Proti vzhodu kaplje dežja,
      Em                   Bm
        so le krinka za potoke solza.
                            F#m
        Zato bi najrajš do smrti ostal,
      Em                  Bm
        in dilemo bi pregnal.
 
kitara 1.
D|---------------------------------------------|
A|---------------------------------------------|
F|------------------------------------------4--|
C|-9-------11--12--4v------4--4/5---2-------4--|
G|------------------------------------------2--|
D|---------------------------------------------|
                                              M
 
 
REFREN 2:
 
                                Em
        V očeh pa najdem neki sladkega,
                           Bm
        sam hudič ne ve zakaj.
                                A
        V očeh pa najdem neki sladkega,
                            G
        ki me vleče spet nazaj.
 
obe kitari:
   Em                  ...sam hudič...
D|------------------------------------------------|
A|------------------------------------------------|
F|------------------------------------------------|
C|-2---2---2--2-2-2---2---2-2-4-4-5-5-4-4---------|
G|-2---2---2--2-2-2---2---2-2-4-4-5-5-4-4-----5-5-|
D|-0---0---0--0-0-0---0---0-0-2-2-3-3-2-2-0-0-----|
 
   Bm                                     A
D|---------------------------------------------------------------------------------|
A|---------------------------------------------------------------------------------|
F|-4---4---4--4-4------2-4---4---4--4-4-4------------------------------------------|
C|-4---4---4--4-4--2-4---4---4---4--4-4-4-7---7---7--7-7-7---7---7---7--7-7-7--7-7-|
G|-2---2---2--2-2--------2---2---2--2-2-2-7---7---7--7-7-7---7---7---7--7-7-7--7-7-|
D|----------------(0-2-5)-----------------5---5---5--5-5-5---5---5---5--5-5-5--5-5-|
                                                                                  M
 
kitara 1.
   G
D|----------------------------------------------------------|
A|----------------------------------------------------------|
F|-12-12-12-12---12-12-12-12---12-12---12---12---12---------|
C|----------------------------------------------------------|
G|-10-10-10-10---10-10-10-10---10-10---10---10---10---------|
D|----------------------------------------------------------|
              M             M       M    M    M    ~~~~~~~~~
 
kitara 2.
   G
D|----------------------------------------------------------|
A|----------------------------------------------------------|
F|-12-12-12-12---12-12-12-12---12-12---12---12---12---------|
C|-12-12-12-12---12-12-12-12---12-12---12---12---12---------|
G|-10-10-10-10---10-10-10-10---10-10---10---10---10---------|
D|----------------------------------------------------------|
              M             M       M    M    M    ~~~~~~~~~
 
 
BRIDGE:
 
obe kitari:
                    2x
D|-------------------------------------|-----------------------------------|
A|-------------------------------------|-----------------------------------|
F|-------------------------------------|-----------------------------------|
C|-------------------------------------|-2----------------2----------------|
G|----------------5--2--5v-------------|-2----------------2----------------|
D|-7--5--2--1--0-----------0--1--2--5--|-0----------------0----------------|
                        ¤                 ~~~~~~~~~~~~~~~~ ~~~~~~~~~~~~~~~~
 
D|---------------------------------------------------------------------------------------|
A|---------------------------------------------------------------------------------------|
F|---------------------------------------------------------------------------------------|
C|-------------------------------------2----------------2----------------4--4--4-4-4-4-4-|
G|----------------5--2--5v-------------2----------------2----------------4--4--4-4-4-4-4-|
D|-7--5--2--1--0-----------0--1--2--5--0----------------0----------------2--2--2-2-2-2-2-|
                        ¤               ~~~~~~~~~~~~~~~~ ~~~~~~~~~~~~~~~~               M
 
 
REFREN 3:
 
                                Em
        V očeh pa najdem neki sladkega,
                           Bm
        sam hudič ne ve zakaj.
                                A
        V očeh pa najdem neki sladkegaaaa,
                            G  F#m  G    F#m  Em
        ki me vleče spet nazaj.
                  Bm
        Spet nazaaaj, oooookeej.
 
obe kitari:
   Em                  ...sam hudič...
D|------------------------------------------------|
A|------------------------------------------------|
F|------------------------------------------------|
C|-2---2---2--2-2-2---2---2-2-4-4-5-5-4-4---------|
G|-2---2---2--2-2-2---2---2-2-4-4-5-5-4-4-----5-5-|
D|-0---0---0--0-0-0---0---0-0-2-2-3-3-2-2-0-0-----|
 
   Bm                                     A
D|---------------------------------------------------------------------------------|
A|---------------------------------------------------------------------------------|
F|-4---4---4--4-4------2-4---4---4--4-4-4------------------------------------------|
C|-4---4---4--4-4--2-4---4---4---4--4-4-4-7---7---7--7-7-7---7---7---7--7-7-7--7-7-|
G|-2---2---2--2-2--------2---2---2--2-2-2-7---7---7--7-7-7---7---7---7--7-7-7--7-7-|
D|----------------(0-2-5)-----------------5---5---5--5-5-5---5---5---5--5-5-5--5-5-|
                                                                                  M
 
kitara 1.
   G             F#m      G                 F#m  Em          Bm
D|--------------------------------------------------------------------------------|
A|--------------------------------------------------------------------------------|
F|-12-12-12-12---11-11-11-12---12-12---12---11---9---------9-/11------------------|
C|--------------------------------------------------------------------------------|
G|-10-10-10-10---9--9--9--10---10-10---10---9----7---------7-/9-------------------|
D|--------------------------------------------------------------------------------|
              M             M       M    M    M   ~~~~~~~~~     ~~~~~~~~~~~~~~~~~~
 
kitara 2.
   G             F#m      G                 F#m  Em          Bm
D|-------------------------------------------------------------------------------------------------|
A|-------------------------------------------------------------------------------------------------|
F|-12-12-12-12---11-11-11-12---12-12---12---11---9-------------------------------------------------|
C|-12-12-12-12---11-11-11-12---12-12---12---11---9-----------9-----9-9-9-9-9-9-9----9-9-9----9--\--|
G|-10-10-10-10---9--9--9--10---10-10---10---9----7-----------9-----9-9-9-9-9-9-9----9-9-9----9--\--|
D|-----------------------------------------------0-----------7-----7-7-7-7-7-7-7----7-7-7----7--\--|
              M             M       M    M    M   ~~~~~~~~~~~                                     M
 


trzalica bar

trzalica bar

Dodaj komentar


Varnostna koda
Osveži

  Iskanje

config