tablatura akordi besedilo   Nespodobno opravilo (tab)

trzalica.com besedilo akordi tablature

Legenda ikon:


Pogoji uporabe.    

besedilo z akordi besedilo z akordi
tablature tablatura (tabulatura)
tablature tablatura za bas
tablature videolekcija

GuitarPro GutarPro (GP)
note Note (v PDF formatu)
sibelius Sibelius (SIB), itd.
..

   ___________________________________________________________
  |  _______________________________________________________  |
  | |                                                       | |
  | | IZVAJALEC: .............. Siddharta                   | |
  | | PESEM: .................. Nespodobno opravilo         | |
  | | ALBUM: .................. ID                          | |
  | | LETO IZIDA: ............. 1999                        | |
  | | DOMAČA STRAN: ........... www.siddharta.net           | |
  | |_______________________________________________________| |
  | |                                                       | |
  | |           Avtor transkripcije: AliAs                  | |
  | |    Domača stran transkripcije: Trzalica.com           | |
  | |  Datum nastanka transkripcije: 29.12.2007             | |
  | |_______________________________________________________| |
  |___________________________________________________________|
 
================================================================================================
 
PRIJEMI AKORDOV:
        Am    - X 0 2 2 1 0
        Asus2 - X 0 2 2 0 0
Asus4 = A*    - X 0 2 2 3 0
        Am7   - X 0 2 2 1 3
        Am13  - X 0 2 2 1 1
        C     - X 3 2 0 1 0
        C9    - X 3 2 0 3 0
        C7M   - X 3 2 0 0 0
        C*    - X 3 2 0 1 3
        C11   - X 3 2 0 1 1
        F     - 1 3 3 2 1 1        
        G     - 3 2 0 0 0 3
        G9    - X X 0 0 0 5
 
================================================================================================
www.trzalica.com    www.trzalica.com    www.trzalica.com    www.trzalica.com    www.trzalica.com
================================================================================================
 
VERZ 1:
 
Am                             C  C9 C C7M C
Strah v svoji duši, libero zaspi,
      G             Am         A* Am
in v temi nad rjuho,  udari v glavo.
 
Prehod: 
     Am                C                   G                 Am
e|-----------------------------------------------------------0----------|
B|-----------------------------------------------------------1----------|
G|-4/5----5-5/7--7--7--9---9--/12--10--9---7----4-4/5--4--0--2----------|
D|-5/7----7-7/9--9--9--10--10-/14--12--10--9----5-5/7--5--2--2----------|
A|-----------------------------------------------------------0----------|
E|----------------------------------------------------------------------|
 
 
Am                          C  C9 C C7M C
Spet v nedogled ena misel tli,
   G                        Am    A* Am
užge jo njena bit in me nagovori,
Am                          C  C9 C C7M C
brez vsake dlake na jeziku sam,
    G                        Am      A* Am
ji solze na obrazu brišem in izdam.
 
Druga kitara ('brez vsake dlake...'):
   Am                              C
e|-8---10-10-10-10--8--8--10-10-10-8--10-10-10-10--8-8-10-10-10-|
B|-10--10-10-10-10--10-10-10-10-10-8--8--8--8--8---8-8-8--8--8--|
G|-9---9--9--9--9---9--9--9--9--9--9--9--9--9--9---9-9-9--9--9--|
D|--------------------------------------------------------------|
A|--------------------------------------------------------------|
E|--------------------------------------------------------------|
 
   G                               Am
e|-----15-15-15-15--------15-15-15-8---10-10-10-10--8--8--10-10-10-|
B|-12--12-12-12-12--12-12-12-12-12-10--10-10-10-10--10-10-10-10-10-|
G|-12--12-12-12-12--12-12-12-12-12-9---9--9--9--9---9--9--9--9--9--|
D|-12--12-12-12-12--12-12-12-12-12---------------------------------|
A|-----------------------------------------------------------------|
E|-----------------------------------------------------------------|
 
 
REFREN 1:
 
Am         F 
Dejmo ji plan,
lep kozarc in noter vin,
                   G
roka mi za vrat drsi,
                   F
naj se dere naj nori,
                 Am   G                   
ve zakaj pršla jeeeeeee,
              Am    G                 
zakaj pršla jeeeeeee...
                  F           Am
A ne vidm kar se zdi, kot u megli.
 
 
VERZ 2:
 
Am                          C  C9 C C7M C
Dan izgine, tema naju ne izda,
   G                       Am    A* Am
objeta sredi sobe vidiva le dva,
Am                             C  C9 C C7M C
dva, ki svojo senco mečeta v svet,
    G                        Am      A* Am
ki za oba nastaja, kar se dela spet.
 
Druga kitara 2x:
   Am                              C
e|-8---10-10-10-10--8--8--10-10-10-8--10-10-10-10--8-8-10-10-10-|
B|-10--10-10-10-10--10-10-10-10-10-8--8--8--8--8---8-8-8--8--8--|
G|-9---9--9--9--9---9--9--9--9--9--9--9--9--9--9---9-9-9--9--9--|
D|--------------------------------------------------------------|
A|--------------------------------------------------------------|
E|--------------------------------------------------------------|
 
   G                               Am
e|-----15-15-15-15--------15-15-15-8---10-10-10-10--8--8--10-10-10-|
B|-12--12-12-12-12--12-12-12-12-12-10--10-10-10-10--10-10-10-10-10-|
G|-12--12-12-12-12--12-12-12-12-12-9---9--9--9--9---9--9--9--9--9--|
D|-12--12-12-12-12--12-12-12-12-12---------------------------------|
A|-----------------------------------------------------------------|
E|-----------------------------------------------------------------|
 
 
REFREN 2:
 
Am           F 
Plac za nov dan,
lep kozarc in noter vin,
                   G
roka mi za vrat drsi,
                   F
vse to vidi le spomin,
               Am   G 
le spomin vdajeeee,
            Am   G 
spomin vdajeeee...
                  F           Am > Bridge...
A ne vidm kar se zdi, kot u megli.
 
 
BRIDGE:
 
Am   Am7 Am13 Am C   C* C11 C G   G9   Am   A* Am Asus2
Am   Am7 Am13 Am C   C* C11 C G
 
Am                 C          C9 C C7M C
Derem se naglas, plezam na drevo,
     G              Am        A*   Am
v momentu padem dol, naj ponovim še enkrat,
Am                  C          C9 C C7M C
derem se naglas, splezam na drevo,
    G            Am        A*     Am
na vrhu že sedim, ko naju vidim v rokah.
 
 
REFREN 3:
 
F
Lep kozarc in noter vin,
                   G
roka že za vrat drži,
                 F
tisto kar rosi oči,
               Am   G 
slika najina jeeeeeee,
            Am   G 
le najina jeeeeee...
 
F                                                   Am
Vse za zaman, vse za zaman, vse za zaman, vse za zaman...
F                                                   Am
Vse za zaman, vse za zaman, vse za zaman, vse za zaman...
G                 F          Am
A ne vidm kar se zdi, le mislm si.
 

trzalica posnetek bar

trzalica bar
 

Dodaj komentar


Varnostna koda
Osveži

  Iskanje

config